.

banners

Tabs fácil de...Stormbringer. Whitesnake.

  Hace ya cosa de un año cuando saltaba la sorpresa, después de varios días anunciando nuevo disco de la mítica banda Whitesnake, se descubría el título y la portada y que el contenido, iba a ser de versiones de temas de Deep Purple, de la época en que Dave Coverdale fuera su frontman, desde entonces no he dejado de escuchar comentarios y comentarios al respecto, mezcla de curiosidad y decepción.
   Sea como fuere, Whitesnake no podía faltar en este blog  de Tabalturas fáciles, así que yo os quiero dejar un momento en tablatura de "Stormbringer" que fue el tema elegido para presentar el álbum.
  Un saludo.
  TabsFácil.








Stormbringer. Whitesnake.

1.----------------------------------------
2.-6-6/-6-6------------6-6/-6-6-----------
3.-----------5-5/-5-5-----------5/--------
4.----------------------------------------
5.---------------------------------3------
6.----------------------------------5-3-1-

1.----------------------------------------
2.----------------------------------------
3.----------------------------------------
4.-3------------------------------3-------
5.---5--5-5-3h5--5-5-3h5--5-5-3h5---5--5-5
6.----------------------------------------

1.---------------------------
2.---------------------------
3.---------------------------
4.---------------------------
5.---5-5-3h5---5-3-----------
6.-----------------5-4-3-1---...

   (0:40)
1.----------------------------------------
2.----------------------------------------
3.----------------------------------------
4.-3------------------------------3-------
5.---5--5-5-3h5--5-5-3h5--5-5-3h5---5--5-5
6.----------------------------------------

1.---------------------------
2.---------------------------
3.---------------------------
4.----------------------3----
5.---5-5-3h5-------3------5--
6.-------------3-5---5-------...

No hay comentarios:

Publicar un comentario