.

banners

Acordes y tablatura fácil de...Fire. The Winery Dogs.

  Mike Portnoy, Billy Sheehan y Richie Kotzen, cóctel explosivo para los amantes de la buena música y los "Superheroes" de su respectivo instrumento.
  En esta ocasión presentan el segundo disco de su proyecto The Winery Dogs, titulado "Hot Streak", un discazo se mire por donde se mire.
  Os quiero dejar unos momentos en tablatura de una preciosidad de tema, "Fire" que espero, como siempre, que os guste y disfrutéis.
   Un saludo.
   TabsFácil.


Fire. The Winery dogs.

1.--------------------------------------|
2.-/7-7h5-5h3-3h2-2-------2-5-2---------|
3.------------------2-2h4-------4-2-2-1-
4.--------------------------------------|
5.--------------------------------------|
6.--------------------------------------|

1.-----------------------------------|
2.-7h5-5h3-3h2-2-------2-5-2---------|
3.---------------2-2h4-------4-2-2-1-
4.-----------------------------------|
5.-----------------------------------|
6.-----------------------------------|...


Fa#m                         Re
We're struggling with everything

         
  La              Mi
and I don't understand who we are

Fa#m                         Re
sometimes I wanna run from me

           La              Mi

and find an end to it your arms...

No hay comentarios:

Publicar un comentario en la entrada