.

banners

Aprende a tocar Lost in America. Helloween.

  El álbum número 15 de los germanos Helloween llevaba por nombre "My god-Given right".
  Su último single,  "Lost in América" es del que os quiero dejar unos momentos en tablatura para que disfrutéis y aprendáis a tocar la guitarra con vuestra banda favorita.
  Un saludo.
  TabsFácil.



                         

Lost in América. Helloween.

   (0:36)
1.----------------------------------------
2.----------------------------------------
3.---------------------8/-----------------
4.---5----8----------------------5----3-3-
5.---3----6----6----8-------6----3----1-1-
6.-------------4----6-------4-------------

1.----------------------------------------

2.----------------------------------------
3.---------------------8/-----------------
4.---5----8----------------------5----3-3-
5.---3----6----6----8-------6----3----1-1-
6.-------------4----6-------4-----------...


  (0:55)

1.---------3-------4-3----------3--4-3----
2.---------------------6---------------6-4
3.---5-3-5---5-3-5-------3-5--5-----------
4.----------------------------------------
5.----------------------------------------
6.----------------------------------------


1.--------------3--------4-3-----------3--
2.---4-3---------------------6------------
3.-------5-3-5----5-3-5---------3-5--5----
4.----------------------------------------
5.----------------------------------------
6.----------------------------------------


1.---4-3------------
2.-------6-4--4-3---
3.----------------5-
4.------------------
5.------------------
6.----------------...


  (1:52)
1.---------------11-13--------------------
2.---------------------11-----------------
3.---/13--12-13-----------13-12-13--12-13-
4.----------------------------------------
5.----------------------------------------
6.----------------------------------------


1.----------------------------------------
2.--------------------------------------13
3.---13(15)(13)12-------------------------
4.----------------10-10-10--12-12-12-13---
5.----------------------------------------
6.----------------------------------------


1.----------------------------------------
2.---15-13-15-15(16)-13-------------------
3.----------------------12---/10-12-13--12
4.----------------------------------------
5.----------------------------------------
6.----------------------------------------


1.------11-13-----------------------
2.------------11--------------------
3.---13-----------13-12h13h12h10h13-
4.----------------------------------
5.----------------------------------

6.--------------------------------...

No hay comentarios:

Publicar un comentario