.

banners

Acordes de... La luna en ti. Bürdel King.


Acordes y Tablatura de La luna en ti. Bürdel King.
 "Cuando al amor se le muda la piel

A la rutina la cara se ve

Si una sonrisa se viste de hiel

Es muy mal asunto, amor.

Te prometo que cada beso...


La luna en ti. Bürdel King.

1.-----------------------------------------
2.------------1---1------------------------
3.--------0-2--------3-2-0---------------3-
4.-3-3-3--------------------0-0---0-2-3----
5.-----------------------------------------
6.-----------------------------------------

1.---------------------------------------
2.--------------------1-1-3-5-5(6)-3-1-3-
3.-3-2-0----------0-2--------------------
4.-------3--3-3-3------------------------
5.---------------------------------------
6.---------------------------------------


Fa                                      Do
Cuando al amor se le muda la piel

Sol                    #La
A la rutina la cara se ve

Fa                                    Do
Si una sonrisa se viste de hiel

#la                        sol
Es muy mal asunto, amor.

Fa                               do
Te prometo que cada beso

    La              #la   do
Un contrato indefinido será 

Fa                             do
Quiero beber de tus miradas

#la                     do
Quiero envejecer junto a ti.

Fa           #la              la                          #la
Bajaré hasta el mismo infierno para hacerte feliz

La                      #la                      do
Seré el sol en tu invierno. Seré la luna en ti.

Fa                                      do
Cuando el silencio se acuesta entre dos

Sol                    #la
Nacen fronteras sobre el edredón.

Fa                                      do
Cuando a los besos se les ve la piel

#la                        sol
Hay que volver al ayer.

Fa                                      do
Hoy la luna me ha contado

    La              #la   do
que duermes siempre bajo su luz,

Fa                                      do
su vestido me ha prestado,

#la                     do
voy a ser la luna en ti.





Fa           #la              la                          #la
Bajaré hasta el mismo infierno, para hacerte feliz,

La                      #la                      do
seré sol en tu invierno, seré la luna en ti.

Fa           #la              la                          #la
Volaré hasta el fin del mundo, para traer su luz,

La                      #la                      do
no importa si me hundo, ¡Mi brújula eres tú!

Fa           #la              la                          #la
Soñaré besos que he olvidado en un rincón de ti

La                      #la                      do
Tu alma es tu despensa quiero comer de ti

Fa           #la              la                          #la
Volaré hasta el fin del mundo, para traer su luz,

La                      #la                      do
no importa si me hundo, ¡Mi brújula eres tú!

Fa           #la              la                          #la
Bajaré hasta el mismo infierno, para hacerte feliz,

La                      #la                      do
seré sol en tu invierno, seré la luna en ti.




   (Solo)
1.---------------------------------------
2.---------------------------------------
3.--------12-14-14(16)-14---12----12-----
4.-/16-16----------------------16----14--
5.---------------------------------------
6.---------------------------------------

1.----------------------------------------
2.----------------------------------------
3.----------------------------------------
4.-14-12-14-14(15)(15)14-12-14-12---14-12-
5.----------------------------------------
6.----------------------------------------

1.----------------------------------------
2.----------------------------------------
3.--------------------------12---14-12----
4.-14------------12---14-16------------14-
5.----14---14-16--------------------------
6.----------------------------------------

1.--------------------------
2.----------18-17---18-20---
3.-17-19-21-----------------
4.--------------------------
5.--------------------------

6.--------------------------



No hay comentarios:

Publicar un comentario