.

banners

Aprende a tocar... Autorretrato. Extremoduro.

  Atendiendo a una petición, aquí os dejo unos momentos en tablatura del tema "Autorretrato" perteneciente a una de las bandas más importantes de este país, Extremoduro.
  Espero que os guste y disfruteis.
  Un saludo.
  TabsFácil.



Autorretrato. Extremoduro.

1.---------------------------------
2.---------------------------------
3.--------(HH)-----------------(HH)
4.-------2-2-------------------2-2-
5.-4h2---------2-4-2-5--4h2--------
6.-----3--------------------3------

1.---------------------------------
2.---------------------------------
3.---------------------------------
4.---------------------------------
5.-4h5h4h5-2--2-4-2-5--4h5h4h5-2--2
6.---------------------------------

1.----------------------------------
2.----------------------------------
3.----------------------------------
4.-----7----------------------------
5.-4-2-5--2-2--2-2--2-2--2-2--------
6.--------0-0--0-0--0-0--0-0-2-3-2-3

1.-------------------------------
2.-------------------------------
3.-------------------------------
4.-------------------------------
5.-2-2--2-2--2-2--2-2----------2-
6.-0-0--0-0--0-0--0-0-2-3-2-3--0-...


     (1:39)
1.-----------------------------------
2.-----------------------------------
3.-5-----4-----5-5-----4-----5-------
4.-----------------------------------
5.---0-0---0-0-----0-0---0-0---------
6.------------------------------2-2-2

1.---------------------
2.---------------------
3.---------------------
4.---------------------
5.---------------------
6.-2-2-2--3-3-3--3-3-3-

1.-----------------------------------
2.-----------------------------------
3.-5-----4-----5-5-----4-----5-------
4.-----------------------------------
5.---0-0---0-0-----0-0---0-0---------
6.------------------------------2-2-2

1.---------------------
2.---------------------
3.---------------------
4.---------------------
5.---------------------
6.-2-2-2--3-3-3--3-3-3-



No hay comentarios:

Publicar un comentario en la entrada