.

banners

Tablatura fácil de...El carnaval del diablo. Saurom.



Llevábamos tiempo esperando la salida del nuevo trabajo de Saurom, "Sueños" y por fin, ya podemos disfrutar de él.
  Un trabajo doble repleto de himnos folk, muy bien elaborado, sin duda, a merecido la pena esperar... así que ahora a disfrutar!!
  Os quiero dejar un momento en tablatura de uno de los temas que más me ha gustado en la primera escucha, se trata de "El carnaval del diablo" que espero que os guste y disfrutéis.
   Un saludo.
  

El carnaval del diablo. Saurom.

  (0:13) Flauta.
1.---------------------------------
2.-----------------8---------8-8-8-
3.----7h9-9--9h7h9---9---7h9-------
4.--9------------------------------
5.---------------------------------
6.---------------------------------

1.---------------------------------

2.-10-8-7----------------------8---
3.--------9-7----7h9-9--99h7h9---9-
4.-------------9-------------------
5.---------------------------------
6.---------------------------------

1.-------------------

2.-----8-8-8--10-8-7-
3.-7h9---------------
4.-------------------
5.-------------------
6.-------------------...

(0:40)  "Se fue la luz..."

1.------------------------------------
2.------------------------------------
3.------------------------------------
4.------------------------------------
5.-2-2-2--2-2-2--2-2-2-2--5-5-5--5-5-5
6.-0-0-0--0-0-0--0-0-0-0--3-3-3--3-3-3

1.------------------------------------

2.------------------------------------
3.------------------------------------
4.---------------------------------5-5
5.-5-5-5-5--9-9-9--9-9-9--9-9-9-9--3-3
6.-3-3-3-3--7-7-7--7-7-7--7-7-7-7-----

1.----------------------

2.----------------------
3.----------------------
4.-5--5-5-5--5-5-5-7----
5.-3--3-3-3--3-3-3-5--2-
6.--------------------0-...

No hay comentarios:

Publicar un comentario