.

banners

Tabs fácil de...Burn. Whitesnake.

  Tabs fácil y particular versión de un tema mítico donde los haya, interpretado por las huestes de la Serpiente Blanca...
   www.tabsfacil.es
Tablaturas fáciles para guitarra.










Burn. Whitesnake.

1.---------------------------------------
2.---------------------------------------
3.----------3-----------3----------------
4.-3--6h5h3----3--6h5h3----3h6--3--6h5h3-
5.---------------------------------------
6.---------------------------------------

1.---------------------

2.---------------------
3.---3-----------------
4.------3--6h5h3-------
5.---------------6---3-
6.-------------------1-

1.---------------------------------------

2.---------------------------------------
3.----------3-----------3----------------
4.-3--6h5h3----3--6h5h3----3h6--3--6h5h3-
5.---------------------------------------
6.---------------------------------------

1.-------------------

2.-------------------
3.---3---------------
4.------3--6h5h3-----
5.---------------6---
6.------------------//...

  (0:46)   "...Buuuuuuuurn..."

1.-------------------------------
2.-------------------------------
3.-----------------------------3-
4.---------------------------1---
5.---3--------4--6-4-3-1-3-4-----
6.---1--1-3-4--------------------...

No hay comentarios:

Publicar un comentario en la entrada