.

banners

Aprende a tocar al estilo de... Thunder & Lightning. Motörhead.

 
   El legado de Tablaturas fáciles que nos deja Motörhead es sin duda impresionante y apasionante tanto para cualquier seguidor de la banda como para cualquiera que esté aprendiendo a tocar la guitarra, y es por eso que en www.tabsfacil.es no puede faltar alguna  que otra tabs fácil como es el caso de la que hoy os presento.
  Un saludo.
  TabsFácil.




Thunder & Lightning. Motörhead.

1.--------------------------------------
2.--------------------------------------
3.--------------------------------------
4.--------------------------------------
5.---4h6--6-6-6--4h6--6-6-6--4h6--6-6-6-
6.--------------------------------------

1.--------------------------------------

2.--------------------------------------
3.--------------------------------------
4.--------------------------------------
5.--------4-4h6--6-6-6--4h6--6-6-6--4h6-
6.--4-5-6-------------------------------


1.--------------------------------------
2.--------------------------------------
3.--------------------------------------
4.--------------------------------------
5.--6-6-6--------4-4h6--6-6-6-4h6--6-6-6
6.---------4-5-6-----------------------...

(0:33)
1.-------------------------------------
2.-------------------------------------
3.-------------------------------------
4.-------------------------------------
5.---11h13--13-13-13--11h13--13-13-13--
6.-------------------------------------

1.-------------------------------------
2.-------------------------------------
3.-------------------------------------
4.-------------------------------------
5.--11h13--13-13-13----------11--11h13-
6.------------------11-12-13-----------


1.------------------------------------
2.------------------------------------
3.------------------------------------
4.------------------------------------
5.--13-13-13--11h13--13-13-13--11h13--
6.------------------------------------


1.---------------------
2.---------------------
3.---------------------
4.---------------------
5.--13-13-13-----------
6.-----------11-12-13--...


No hay comentarios:

Publicar un comentario en la entrada