.

banners

Tabs fácil de... The book of souls. Iron maiden.


  Ya está aquí, la espera al fin ha concluído. Todos los fans de la Dama de hierro están de enhorabuena, "The book of souls" el último trabajo de Iron maiden está en la calle para deleite de miles, que digo, millones de seguidores en todo el mundo.
   El disco podrá ser mejor o peor, podrá gustar o no, lo que está claro es que viene repleto de riffs metaleros, de tablaturas fáciles que nos van a servir a unos para aprender a tocar la guitarra y a todos para disfrutar con los temas de la banda, de momento aquí os dejo unos momentos en tablatura correspondientes al inicio del tema que da título al disco.
   Un saludo.
   TabsFácil.



The book of souls. Iron maiden.

1.-7h8h7----7--5h7h5---5--3h5h3-2-3--3h2
2.-------10----------8------------------
3.--------------------------------------
4.--------------------------------------
5.--------------------------------------
6.--------------------------------------

1.-7h8h7----7--5h7h5---5--3h5h3-2-3--3h2
2.-------10----------8------------------
3.--------------------------------------
4.--------------------------------------
5.--------------------------------------
6.--------------------------------------

1.-7h8h7----7--5h7h5---5--3h5h3-2-3--3h2
2.-------10----------8------------------
3.--------------------------------------
4.--------------------------------------
5.--------------------------------------
6.--------------------------------------

1.-7h8h7----7--5h7h5---5--3h5h3-2-3--3h2
2.-------10----------8------------------
3.--------------------------------------
4.--------------------------------------
5.--------------------------------------
6.--------------------------------------

                                 (0:52)
1.--2h3h2------------------------------
2.--------5----------------------------
3.-------------------------------------
4.--------------------2-3-2--2---------
5.-----------------2--------5---2-3-2--
6.------------7\\--0------------------5

1.-----------------------------------
2.-----------------------------------
3.-----------------------------------
4.-------------2-3-2---2-------------
5.--2-------2--------5---2-3-2---2-2-
6.----5-3-2-0------------------5---0-

1.------------------------------------
2.------------------------------------
3.------------------------------------
4.--2-3-2---2---------------------2-3-
5.--------5----2-3-2---2-------2------
6.-------------------5---5-3-2-0------

1.---------------------
2.---------------------
3.---------------------
4.--2---2--------------
5.----5----2-3-2---2-2-
6.---------------5---0-...

(1:17)    "Sacrifice"...
1.----------------------------
2.----------------------------
3.--4-----------4------------4
4.--2--2h3h2----2--2h3h2-5---2
5.-----------5-------------5--
6.----------------------------...


(2:17) Guitar 1.
1.---------------------------------
2.---------------------------------
3.---------------------------------
4.--5----2--5----2--5----9--5----7-
5.--3-3--0--3-3--0--3-3--7--3-3--5-
6.---------------------------------...


(2:17) Guitar 2.
1.----------------7-5-----------------
2.--5-7-8-7-5-7-8-----7--5-7-8-7-5-7-8
3.------------------------------------
4.------------------------------------
5.------------------------------------
6.------------------------------------

1.---------------------7-5------------
2.----5--5-7-8-7-5-7-8-----7--5-7-8-7-
3.--7---------------------------------
4.------------------------------------
5.------------------------------------
6.------------------------------------

1.---------------------------7-5------
2.--5-7-8---5--5-7-8-7-5-7-8-----7--5-
3.--------7---------------------------
4.------------------------------------
5.------------------------------------
6.------------------------------------

1.--------------5------------------7-5
2.--7-8-7-5-7-8---7--5-7-8-7-5-7-8----
3.------------------------------------
4.------------------------------------
5.------------------------------------
6.------------------------------------

1.--------------------5-
2.--7--5-7-8-7-5-7-8----
3.----------------------
4.----------------------
5.----------------------
6.----------------------...

(2:41)
1.-----------------------------------
2.-----------------------------------
3.--4-----------------4--------------
4.--2--4-5--5--7------2--4-5--5--7---
5.----------3--5--------------3--5---
6.---------------5-5-----------------

1.-------------------------------
2.-------------------------------
3.-----------4-------------------
4.--2-0-5-2--2--4-5--5--7-7-7-7--
5.-------------------3--5-5-5-5--
6.-------------------------------

1.-----------------------------------
2.-----------------------------------
3.--4----------------------4---------
4.--2--4-5--5--7--2-0-5-4--2--4-5--5-
5.----------3--5-------------------3-
6.-----------------------------------


1.-----------------------------------
2.-----------------------------------
3.-------4----------7--6----4--------
4.--7--4-2--4-5--5--5--4--0-2--4-5--5
5.--5--2---------3------------------3
6.-----------------------------------

1.---------------------------------
2.---------------------------------
3.--------------4----------7--6----
4.--7--2-0-5-2--2--4-5--5--5--4--2-
5.--5-------------------3----------
6.---------------------------------...


(5:50)
1.----------------------------
2.----------------------------
3.----------------------------
4.----------------------------
5.--------5-----2-----3-----0-
6.--0-0-0---0-0---0-0---0-0---

1.--------------------------
2.--------------------------
3.--------------------------
4.--------------------------
5.------2-------------------
6.--0-0---0-0-3-0-0-5-3-2-0-

1.----------------------------
2.----------------------------
3.----------------------------
4.----------------------------
5.--------5-----2-----3-----0-
6.--0-0-0---0-0---0-0---0-0---

1.--------------------------
2.--------------------------
3.--------------------------
4.--------------------------
5.------2-------------------
6.--0-0---0-0-3-0-0-5-3-2-0-

1.----------------------------
2.----------------------------
3.----------------------------
4.----------------------------
5.--------5-----2-----3-----0-
6.--0-0-0---0-0---0-0---0-0---

1.--------------------------
2.--------------------------
3.--------------------------
4.--------------------------
5.------2-------------------
6.--0-0---0-0-3-0-0-5-3-2-0-

1.----------------------------
2.----------------------------
3.----------------------------
4.----------------------------
5.--------5-----2-----3-----0-
6.--0-0-0---0-0---0-0---0-0---

1.--------------------------
2.--------------------------
3.--------------------------
4.--------------------------
5.------2-------------------
6.--0-0---0-0-3-0-0-5-3-2-0-

1.----------------------------
2.----------------------------
3.----------------------------
4.--------5-----2-----3-----0-
5.--0-0-0---0-0---0-0---0-0---
6.----------------------------

1.--------------------------
2.--------------------------
3.--------------------------
4.------2-------------------
5.--0-0---0-0-3-0-0-5-3-2-0-
6.--------------------------

1.----------------------------
2.----------------------------
3.----------------------------
4.--------5-----2-----3-----0-
5.--0-0-0---0-0---0-0---0-0---
6.----------------------------

1.--------------------------
2.--------------------------
3.--------------------------
4.------2-------------------
5.--0-0---0-0-3-0-0-5-3-2-0-
6.--------------------------

1.----------------------------
2.----------------------------
3.----------------------------
4.----------------------------
5.--------5-----2-----3-----0-
6.--0-0-0---0-0---0-0---0-0---

1.--------------------------
2.--------------------------
3.--------------------------
4.--------------------------
5.------2-------------------
6.--0-0---0-0-3-0-0-5-3-2-0-

1.----------------------------
2.----------------------------
3.----------------------------
4.----------------------------
5.--------5-----2-----3-----0-
6.--0-0-0---0-0---0-0---0-0---

1.--------------------------
2.--------------------------
3.--------------------------
4.--------------------------
5.------2-------------------
6.--0-0---0-0-3-0-0-5-3-2-0-


(7:05)
1.--------------5------------------
2.--8-7-5-7-5-----8-7-5-7-5---5--8-
3.------------7-------------7------
4.---------------------------------
5.---------------------------------
6.---------------------------------

1.------------5--7-5---5-------
2.--7-5-7-5----------8---8-7-5-
3.----------7------------------
4.-----------------------------
5.-----------------------------
6.-----------------------------

1.--------------5------------------
2.--8-7-5-7-5-----8-7-5-7-5---5--8-
3.------------7-------------7------
4.---------------------------------
5.---------------------------------
6.---------------------------------

1.------------5--7-5---5-------
2.--7-5-7-5----------8---8-7-5-
3.----------7------------------
4.-----------------------------
5.-----------------------------

6.----------------------------...

No hay comentarios:

Publicar un comentario