.

banners

Tablatura fácil de... Conflicted. Kiko Loureiro.

Desde Tabs Fáciles hemos querido aprovechar el regalo que nos hacía en su último trabajo el guitarrista Kiko Loureiro, añadiendo un backing track del tema "Conflicted" para publicar la tablatura fácil del tema y la podáis usar para divertiros, practicar y entreteneos tocando la guitarra.
  Un saludo.
  TabsFácil.







Conflicted. Kiko Loureiro

1.-------------------2---------------
2.----9----------------3-5---7------9
3.------9---------9------------7-9---
4.--------9--------------------------
5.----------11-12--------------------
6.-0---------------------------------

                                                                                                                                                                                                                                                   
1.-16-------------------------------H-H-----H--H--14
2.----17-----------20-19-17---H--H-15-17---15-17----
3.-------16------------------12-14------------------
4.----------18-19-----------------------------------
5.--------------------------------------------------
6.--------------------------------------------------


1.---------------------------------------------------
2.---------------------------------------------------
3.---------------------------------------------------
4.---------------------------------------------------
5.-7/------------------------7/----------------------
6.----0---0---0-0-0---0-0-0-----0---0---0-0-0---0-0-0


1.-------------------------------------------
2.-------------------------------------------
3.-------------------------------------------
4.-------------------------------------------
5.-7/------------------------7h5-8---7/------
6.----0---0---0-0-0---0-0-0-------------0---0


1.--------------------------------------------
2.--------------------------------------------
3.--------------------------------------------
4.--------------------------------------------
5.---------------7/-----------------------7/--
6.-0-0-0---0-0-0----0---0---0-0-0---0-0-0----0


1.---------------------------------
2.---------------------------------
3.-----------------------8-7---6---
4.-------------------5-8-----8---7-
5.---------------------------------
6.-0---0-0-0---0-0-0---------------


1.---------------------------------------------------
2.---------------------------------------------------
3.---------------------------------------------------
4.---------------------------------------------------
5.-7/------------------------7/----------------------
6.----0---0---0-0-0---0-0-0-----0---0---0-0-0---0-0-0


1.-------------------------------------------
2.-------------------------------------------
3.-------------------------------------------
4.-------------------------------------------
5.-7/------------------------7h5-8---7/------
6.----0---0---0-0-0---0-0-0-------------0---0


1.------------------------------------------------
2.------------------------------------------------
3.------------------------------------------------
4.------------------------------------------------
5.---------------7/-----------------------7/------
6.-0-0-0---0-0-0----0---0---0-0-0---0-0-0----0---0


1.-----------------------------------------------
2.-----------------------------------------------
3.--------------------8-7---6----5---4---3-----3-
4.----------------5-8-----8---7----6---5---4-5---
5.-----------------------------------------------
6.-0-0-0---0-0-0---------------------------------


(1:03)
1.-/4--------------------------------------------
2.----5------------------------------------------
3.------4--5-4-2-4-5(7)(5)-4-5--9h11-11(12)(11)-9
4.-----------------------------------------------
5.-----------------------------------------------
6.-----------------------------------------------


1.-------------------12h10-12
2.----------------12---------
3.-14(16)(14)-12-------------
4.---------------------------
5.---------------------------
6.---------------------------


(1:14)
1.-15(16)-----------------14-14(15)(14)---
2.--------17-----------12---------------17
3.-----------16-----14--------------------
4.---------------14-----------------------
5.----------------------------------------
6.----------------------------------------


1.---------------------------------------------------
2.-16/17/16------------------------------------------
3.----------16-19------17-14-16-12-14-9-11-12(14)(12)
4.----------------19-21------------------------------
5.---------------------------------------------------
6.---------------------------------------------------


                  (1:24)
1.----------------12----------------14-12---12---
2.-------------------12----13-12---------------12
3.-11h12h11-------------11-------12--------------
4.----------14-----------------------------------
5.-----------------------------------------------
6.-----------------------------------------------


                       (1:34)
1.-17-14---15-14-------------15(16)(15)------------
2.----------------17--------------------17---------
3.-----------------------------------------16-13-19
4.-------------------------------------------------
5.-------------------------------------------------
6.-------------------------------------------------


1.------------------19-15-------15-14---------------
2.------------------------19-15-------15-17-20-17-19
3.-17-16-17---16-17---------------------------------
4.--------------------------------------------------
5.--------------------------------------------------
6.--------------------------------------------------


1.-----------------------11----15-14---12----17-15-
2.-15-17-15---17------------12------------12-------
3.---------------14(16)----------------------------
4.-------------------------------------------------
5.-------------------------------------------------
6.-------------------------------------------------


1.-11----17-19---------------------------------
2.----12-------------------------------12-13-15
3.-----------------------------9-11-12---------
4.----------------------7-9-10-----------------
5.---------------7-9-10------------------------
6.---------------------------------------------


1.-----------------------------------------------
2.-------------18-17-17/18-18---17-17----17----17
3.-19-17-16-17------------------------16----16---
4.-----------------------------------------------
5.-----------------------------------------------
6.-----------------------------------------------


1.------------------------------------
2.------------------------------------
3.-19-17-17-19-19-17----16h17h16----16
4.-------------------------------19---
5.------------------------------------
6.------------------------------------


(2:05)
1.--------------15-17-18-------------------------
2.-------11-10------------18-16-15-18-16-15-15/16
3.-7-8-9-----------------------------------------
4.-----------------------------------------------
5.-----------------------------------------------
6.-----------------------------------------------


1.-17-18-----17(18)-----------------------17------
2.-------20----------18-------------15-18----20---
3.----------------------15-14-15-17---------------
4.------------------------------------------------
5.------------------------------------------------
6.------------------------------------------------


1.------------------17h18---------20---
2.---10-11-10---15--------18---15----18
3.-7-----------------------------------
4.-------------------------------------
5.-------------------------------------
6.-------------------------------------. . .


(3:49)
1.------------------------------------------------
2.------------------------------------------------
3.------------------------------------------------
4.-5-----5-----5-----5-----5-----6-----6-----6----
5.---6-3---6-3---6-3---6-3---6-3---6-3---6-3---6-3
6.------------------------------------------------


1.-----------------------------------------------
2.-----------------------------------------------
3.-----------------------------------------------
4.-6-----6-----5-----5-----5-----5-----5----3----
5.---6-3---6-3---6-3---6-3---6-3---6-3---6----6-3
6.-----------------------------------------------


1.------------------------------(repite obstinato)
2.------------------------------
3.----------5------5------5-----
4.---3--------6-3-----6-3---6-3-
5.-----6-3----------------------
6.------------------------------


(4:09)
1.---------------
2.---------6-6---
3.---5-7-8-------
4.---------------
5.---------------
6.---------------. . .

No hay comentarios:

Publicar un comentario en la entrada