.

banners

Acordes de... Es mejor sentir. Manolo García.

  Aprende a tocar con TabsFácil uno de los últimos éxitos de un grande de la música española.
  Manolo García y su "Es mejor sentir" desde ya, en TabsFácil.
  Un saludo.










 Es mejor sentir. Manolo García.


1.-------------------------------------------------
2.-------------------------------------------------
3.-------0-----0-----3-5-3-------0-----0-----3-5-3-
4.-----0-----0-----0-----------0-----0-----0-------
5.---------3-----------------------3---------------
6.---3-----------3----------3-----------3----------

1.----------------------------------------5---3-3-3-
2.----------------------------------------5---3-3-3-
3.-------0-----0-----3-5-3-------0-----0--7---3-3-3-
4.-----0-----0-----0-----------0-----0----7---5-5-5-
5.---------3-----------------------3------5---5-5-5-
6.---3-----------3----------0-----------------3-3-3-

     
        Do             Re         Do     Re      Do
        Es mejor sentir que pensar sentir es mejor.

        Do             Re         Do     Re      Do
        Es mejor sentir que pensar sentir es mejor.

        Re                     Sol  Do  Sol
        Tuve que cruzar el puente. 

        Re             Do      Sol  Do  Sol
        Tuve que pararme al sol.

        Re                     Sol  Do  Sol
        a esperar la buena suerte

        Re             Do      Sol  Do  Sol
        a volver a entrar en calor.

         Re                         Lam
          Si vuelve a suceder, si me vuelvo a enamorar

        Re                         Mim
        tendré que andar con más tino

        Re                            Lam
        y no creo que el destino ya esté escrito 

            Mim   Re
        y por firmar...


(1:31)

       SiM  -  Do  -  Re  -  Si7  -  Do  ...

No hay comentarios:

Publicar un comentario en la entrada