.

banners

A door into summer. Joe Satriani.


Tablaturas fáciles para guitarra.
www.tabsfacil.es












A door into summer. Joe Satriani.

(0:25)


1.-------------------------------
2.---4---4-6---8-----4-6---4/6-4-
3.-5---5-----------5-------------
4.-------------------------------
5.-------------------------------
6.-------------------------------

1.---------------------
2.---------4---4-6---8-
3.-5-3---5---5---------
4.---------------------
5.---------------------
6.---------------------


1.--------------------------------
2.---4-6-----4-6-4----4---4-6---8-
3.-5-----5/6--------5---5---------
4.--------------------------------
5.--------------------------------
6.--------------------------------

1.--------------------
2.--------------------
3.-/17-15---17(18)(17)
4.--------------------
5.--------------------
6.--------------------

1.----------------------------------
2.----------------------4---4-6---8-
3.-15----15-----------5---5---------
4.----18----18/17/15----------------
5.----------------------------------
6.----------------------------------

1.------------------
2.---4-6------4-6-4-
3.-5------5/6-------
4.------------------
5.------------------
6.------------------


1.-------13-15---------------
2.-13-16-------16---16-13-16-
3.---------------------------
4.---------------------------
5.---------------------------
6.---------------------------

1.-------13---------------
2.-13-16-----13-16--16(18)
3.------------------------
4.------------------------
5.------------------------
6.------------------------


1.---------------------------------
2.-16(18)-16(18)(16)---------------
3.-------------------17-15---15-17-
4.---------------------------------
5.---------------------------------
6.---------------------------------

1.----------------14/15-
2.-16-16----16-18-------
3.-------17-------------
4.----------------------
5.----------------------
6.----------------------


1.---------------------16---------
2.-13---15/16------/20----20-18-16
3.------------17------------------
4.--------------------------------
5.--------------------------------
6.--------------------------------

1.--------------
2.--------16-18-
3.-15/17--------
4.--------------
5.--------------
6.--------------



No hay comentarios:

Publicar un comentario en la entrada