.

banners

Tablatura fácil de...The gift of music. Dream Theater.


  El esperadísimo nuevo álbum de Dream Theater, salía a la venta un 29 de Enero del año pasado, título, "The Astonishing", portada, que la podéis ver encabezando estas letras y, tema adelanto, "The gift of music" del que hoy os quiero dejar un pequeño momento en tablatura.
  Dream Theater es uno de esos grupos que no podía faltar en www.tabsfacil.es y del que tienes, más tablaturas.
  Un saludo.
 TabsFácil.







The gift of music. Dream Theater.

  (0:11)(Guitarra 1).

1.----------------------------------
2.----------------------------------
3.----------------------------------
4.----------------------------------
5.------2-5-4--0-2-0--0-0-0-0-0-0-0-
6.--3-5-----------------------------


(Guitarra 2).

1.----------------------------------
2.----------------------5-5--3-2-0--
3.---------------------------------2
4.----------------------------------
5.----------------------------------
6.----------------------------------


(Guitarra 1).

1.-----------------------------------
2.-----------------------------------
3.-----------------------------------
4.-----------------------------------
5.-0-0-0-0-0-0-0-0-0-0-0-0-0-0-0-0-0-
6.-----------------------------------

(Guitarra 2).

1.----------3-2----------------------
2.-5-5--3-2------5-5--3-2-0----5-5-3-
3.--------------------------2--------
4.-----------------------------------
5.-----------------------------------
6.-----------------------------------


(Guitarra 1).

1.-----------------------------------
2.-----------------------------------
3.-----------------------------------
4.-----------------------------------
5.--5------2-5-4--0-2-0--0-0-0-0-0-0-
6.--3--3-5---------------------------


(Guitarra 2).

1.-----------------------------------
2.-----------------------5-5--3-2-0--
3.----------------------------------2
4.-----------------------------------
5.-----------------------------------
6.-----------------------------------


(Guitarra 1).

1.-----------------------------------
2.-----------------------------------
3.--------------------2---4----------
4.--------------------0---2----------
5.-0-0-0-0-0-0-0--5----------0-0-0-0-
6.----------------3------------------

(Guitarra 2).

1.------------------------------------
2.-5-5--3-2-0----------------5-5--3-2-
3.------------2-----------------------
4.------------------------------------
5.------------------------------------
6.------------------------------------

(Guitarra 1).

1.---------------------
2.---------------------
3.---------------------
4.---------------------
5.-0-0-0-0-0-0-0-0-0-0-
6.--------------------...


(Guitarra 2).

1.--------------------
2.-0-----5-5--3-2-0---
3.---2--------------2-
4.--------------------
5.--------------------
6.------------------...





No hay comentarios:

Publicar un comentario en la entrada