.

banners

Tablatura fácil de...Music without words. Joe Satriani.


  El pasado 4 de Noviembre salía a la luz un tema compuesto por Joe Satriani junto con Robin DiMaggio, director musical de Naciones Unidas,  en beneficio de los niños que acoge UNICEF.
  El tema se llama "Music without words" y os quiero dejar unos momentos fáciles en tablatura que espero que os guste y disfrutéis.
  Un saludo.
  TabsFácil.






Music without words. Joe Satriani.

1.--5/7-7--7-7--5-7/8-8-7--3-3--3-3h0-
2.------------------------------------
3.------------------------------------
4.------------------------------------
5.------------------------------------
6.------------------------------------

1.--3/5-5--/8-8--8-8--8--3/5--5h3h0h3-
2.------------------------------------
3.------------------------------------
4.------------------------------------
5.------------------------------------
6.------------------------------------

1.-------1-1--1-1h0--0-0h----------5h7
2.--3h5------------------3-1-3--------
3.------------------------------------
4.-----------------------------5------
5.------------------------------------
6.------------------------------------

1.-7-7--7h8-8--5--5h7h5h7-------------
2.------------------------5/8-8-8/5---
3.------------------------------------
4.------------------------------------
5.------------------------------------
6.------------------------------------

1.--3h5-5--8-8--8-8-8--3/5--3---3-----
2.----------------------------5----3/5
3.------------------------------------
4.------------------------------------
5.------------------------------------
6.------------------------------------

1.-10-12-13-13-13-13-12-10-12-10-8-10-
2.------------------------------------
3.------------------------------------
4.------------------------------------
5.------------------------------------
6.---------------------------------...

1.----/15-
2.--------
3.--------
4.--------
5.--------

6.--------...

No hay comentarios:

Publicar un comentario