.

banners

Tablatura fácil de...Moonage Daydream. The Winery dogs.


  La Tablatura fácil en ésta ocasión consta de unos links de guitarra pertenecientes al tema que han elegido estos grandes instrumentistas que forman la banda The Winery Dogs para homenajear al desaparecido David Bowie...
  "Moonage Daydream" se llama el tema y aquí os dejo como os decía, unos pequeños fragmentos de la versión de The Winery Dogs.
  Un saludo.
  TabsFácil.




Moonage Daydream. The Winery Dogs.

(0:29)

1.----------12(14)(12)-12-10----|
2.----12-12------------------12-|
3.-11---------------------------|
4.------------------------------|
5.------------------------------|
6.------------------------------|...


(0:44)

1.-------------------------|
2.-/12---------------------|
3.-------------------------|
4.------14-12----12-14--12-|
5.------------14-----------|
6.-------------------------|...


(1:25)

1.----------------------------------|
2.----------12-10-------------------|
3.-9(11)-11-------11-9--7h9---------|
4.--------------------------9h7h9-7-|
5.----------------------------------|
6.----------------------------------|...


(1:37)

1.-----17(19)-17----------------|
2.----------------17(19)(17)-15-
3.-19---------------------------|
4.------------------------------|
5.------------------------------|
6.------------------------------|...


No hay comentarios:

Publicar un comentario en la entrada