.

banners

Tablatura fácil de...Moment of Betrayal. Dream Theater.

 
   Ya puedes disfrutar del nuevo trabajo de Dream Theater, "The Astonishing" un álbum doble conceptual que estoy seguro que hará las delicias de sus miles de seguidores por todo el mundo.
  Aquí en TabsFácil queremos invitarte a aprender  a tocar y divertirte con el inicio de uno de los temas que la banda adelantó hace pocos días, "Moment of betrayal".
   Un saludo.
  TabsFácil.



Moment of betrayal.

(0:21)

1.--------------------------------------|
2.--------------------------------------|
3.--------------------------------------|
4.------------4----5----4---------5----7
5.--2----7----2----3----2----2----3----5
6.--0----5-------------------0----------|

1.----------------------------------|
2.----------------------------------|
3.----------------------------------|
4.------------------7----7-7-7-7-7-7
5.--7--7--7-------9---6-------------|
6.--5--5--5---8-7-------------------|...


No hay comentarios:

Publicar un comentario en la entrada