.

banners

Tablatura fácil de...Lazarus. David Bowie.

  ¿Aprender a tocar la guitarra tocando a tus artistas preferidos y sus últimas novedades? Si, en www.tabsfacil.blogspot.com puedes hacerlo y hoy toca con el regreso de David Bowie y el tema elegido como sencillo "Lazarus", que en su intro tiene un riff muy sencillo y fácil con el que puedes practicar y disfrutar tocando un buen rato...
  Un saludo.
  TabsFácil.

Lazarus. David Bowie.

1.-------------------------|
2.-------------------------|
3.-7-7-7-7-7-7-7-7-7-7-7-7-|
4.-------------------------|
5.-------------------------|
6.-------------------------|

1.-------------------------|
2.-------------------------|
3.-------------------------|
4.-5-5-5-5--7-7-7-7-7-7-7-7
5.-------------------------|
6.-------------------------|


1.-------------------------|
2.-------------------------|
3.-------------------5-5-5-5
4.-7-7-7-7-----------------|
5.----------7-7-7-7--------|
6.-------------------------|


1.-------------------------|
2.-------------------------|
3.-5-5-5-5-5-5-5-5--4-4-4-4
4.-------------------------|
5.-------------------------|
6.-------------------------|


1.-------------------------|
2.-------------------------|
3.-------------------------|
4.-5-5-5-5-5-5-5-5-5-5-5-5-|
5.-------------------------|
6.-------------------------|


1.-----------0-----------0-|
2.-----------1-----------1-|
3.-----------2--/5-4-----2-|
4.-----------2-------5---2-|
5.-7-7-7-7---0-----------0-|
6.-------------------------|


1.-----------|
2.-----------|
3.-/5-4------|
4.------5-7--|
5.-----------|
6.-----------|...




No hay comentarios:

Publicar un comentario