.

banners

Tablatura fácil de...Dystopia. Megadeth.

  Un riff en tablatura muy interesante y fácil y que denota la presencia de Kiko Loureiro en la nueva formación de Megadeth, es éste que os presento hoy y que representa el comienzo del tema, que servirá de single adelanto del nuevo trabajo de la banda liderada por Dave Mustaine.
  Se espera su salida para el 22 de Enero, así que, como quedan unos días, coge tu guitarra y aprovecha para aprender y entretenerte en www.tabsfacil.es.
  Un saludo.
  TabsFácil.





Dystopia. Megadeth.

1.---------------------------------------|
2.--8----6----8----6----8----6----8----6-|
3.---------------------------------------|
4.---------------------------------------|
5.---------------------------------------|
6.---------------------------------------|

1.---------------------------------------|
2.---------------------------------------|
3.--------------------8----7-8-10--7-8---|
4.-10--10-10-10-10-10---10-------------10
5.---------------------------------------|
6.---------------------------------------|

1.---------------------------------------|
2.---------------------------------------|
3.-7----------------7----7-8-10--7-8---7-|
4.---9--9-9-9-9-9-9---9--------------9---8
5.---------------------------------------|
6.---------------------------------------|

1.---------------------------------------|
2.---------------------------------------|
3.-------------8---7-8-10--7-8----7------|
4.-8-8-8-8-8-8---8-------------10---7--7-|
5.---------------------------------------|
6.---------------------------------------|

1.------------------------------------|
2.-------------8----6---4-------------|
3.---------------8----7---5--7---7-5--|
4.-7-7-7-7-7-------------------8------|
5.------------------------------------|
6.------------------------------------|...

No hay comentarios:

Publicar un comentario