.

banners

Tablatura fácil de...Birds. Coldplay.

  Si buscas una tablatura fácil para aprender a tocar la guitarra, si puede ser de uno de tus grupos preferidos y además que esté de actualidad,  el último sencillo del reciente trabajo de Coldplay "Birds" es tu tema.
   Así que, saca tu guitarra y ponte a prácticar y a divertirte con estos momentos en tablatura que te dejo a continuación.
  Un saludo.
  TabsFácil.







Birds. Coldplay.

1.----7-8-8--7-8-7----7-8-7-10--|
2.--8---------------8-----------|
3.------------------------------|
4.------------------------------|
5.------------------------------|
6.------------------------------|

1.----7-8-8--7-8-7----7-8-7-10--|
2.--8---------------8-----------|
3.------------------------------|
4.------------------------------|
5.------------------------------|
6.------------------------------|

1.----7-8-8--7-8-7----7-8-7-10--|
2.--8---------------8-----------|
3.------------------------------|
4.------------------------------|
5.------------------------------|
6.------------------------------|

1.----7-8-8--7-8-7----7-8-7-10--|
2.--8---------------8-----------|
3.------------------------------|
4.------------------------------|
5.------------------------------|
6.------------------------------|

1.----7-8-8--7-8-7----7-8-7-10--|
2.--8---------------8-----------|
3.------------------------------|
4.------------------------------|
5.------------------------------|
6.------------------------------|

1.----7-8-8--7-8-7----7-8-7-10--|
2.--8---------------8-----------|
3.------------------------------|
4.------------------------------|
5.------------------------------|
6.------------------------------|

1.----7-8-8--7-8-7----7-8-7-10--|
2.--8---------------8-----------|
3.------------------------------|
4.------------------------------|
5.------------------------------|
6.------------------------------|...


    (2:49)
  
1.-----------------------------------|
2.-15(17)(15)-13-13------------------|
3.-----------------------------------|
4.----------------------10-12--10-12-|
5.-------------------12--------------|
6.-----------------------------------|

1.-----------------------------------|
2.-----------13-15(17)(15)-13-13-----|
3.--------14-------------------------|
4.-10-10-----------------------------|
5.--------------------------------12-|
6.-----------------------------------|

1.-----------------------------------|
2.----------------------15(17)(15)-13
3.-----------------------------------|
4.-----------------------------------|
5.-10-12--10-12--10-10---------------|
6.-----------------------------------|

1.-----------------------------------|
2.-13--------------------------------|
3.-----------------------------------|
4.--------10-12--10-12--10-10--12--10
5.-----12----------------------------|
6.-----------------------------------|

1.------------------------------|
2.------------------------------|
3.------------------------------|
4.-12--10-10--12--10-12--10-10--|
5.------------------------------|
6.------------------------------|...

No hay comentarios:

Publicar un comentario