.

banners

Tablatura fácil de...5 A.M. David Gilmour.

"5 A.M." es el tema que abre el último trabajo de David Gilmour "Rattle that lock" que salía el 18 de Septiembre. La voz y guitarra de Pink Floyd se desmarcaba con este álbum, deleite, por otra parte de seguidores y fans de la banda.
  Os quiero dejar unos momentos en tablatura fácil del tema en cuestión, que espero, como siempre que os guste y disfrutéis.
 Un saludo.
 TabsFácil.




5 A.M. David Gilmour.

1.--------------------------------
2.--17--17-17-17--/19----------5--
3.--------------------19--/4-7----
4.--------------------------------
5.--------------------------------
6.--------------------------------

1.--------------------------------
2.--------------------------------
3.--/4-7-7-/9------------------/4-
4.-------------7-/5--7h9h7h5h7----
5.--------------------------------
6.--------------------------------


1.-----------------------------------
2.----5--20--19----------------------
3.--7-----------16h14h16h14h16-------
4.------------------------------7h9h7
5.-----------------------------------
6.-----------------------------------


1.-----------------------------------
2.------------17-19-19(20)(19)-17----
3.--------------------------------19-
4.--/5h7h5---------------------------
5.---------5-------------------------
6.-----------------------------------


1.-----------------------------------
2.---12-----17-19-19(20)(19)--17-----
3.-------19----------------------19--
4.-----------------------------------
5.-----------------------------------
6.-----------------------------------


1.----------------------------19-----
2.-----17-19-19(20)(19)-20-22--------
3.--19-------------------------------
4.--------------------------------14-
5.-----------------------------------
6.-----------------------------------


1.---------------------------------
2.---------------------------------
3.-----14--------------------------
4.--14----16(17)(16)(17)(16)-14----
5.------------------------------17-
6.---------------------------------...


No hay comentarios:

Publicar un comentario