.

banners

Tablatura fácil de...Rock or bust. AC/DC

www.tabsfacil.es
Tablaturas fáciles para guitarra.















Rock or bust. AC/DC.



1.---------------------------------------------
2.-----------2-2-2-----------------------2-2-2-
3.-----------------1-1-1-----------------------
4.-----------------------1-1-1-----------------
5.--1-1-1-1---------------------1-1-1-1--------
6.---------------------------------------------

1.---------------------------------------------
2.---------------------------------------------
3.--1-1-1--------------------------------------
4.--------1-1-1---6h8---------6h8---------6h8--
5.---------------------------------------------
6.---------------------3/4h6-------3/4h6-------

1.-------------------------------------------------
2.------------------------------2-2-2--------------
3.------------------------------------1-1-1--------
4.-------------------------------------------1-1-1-
5.---------6h8---------1-1-1-1---------------------
6.--3/4h6-------3/4h6---------------------------...

No hay comentarios:

Publicar un comentario