.

banners

Resurrección. Jose Andrëa y Uróboros.


www.tabsfacil.es
tablaturas fáciles para guitarra.

   Toda una declaración de intenciones lleva la letra y el título de este tema "Resurrección" que también da nombre al último y reciente trabajo de José Andrëa y su banda Uróboros.
  Os quiero dejar unos momentos en tablatura del inicio del tema para que practiquéis y os divirtáis tocando la guitarra.
  Un saludo.

  







Resurrección. Jose Andrëa y Uróboros.

  (0:09)
1.-------------------------------
2.-/13---------------------13----
3.----12-10----10(12)--/12----12-
4.----------13-------------------
5.-------------------------------
6.-------------------------------

1.--------------------------------
2.-15(16)(15)-13-----------/13-11-
3.---------------15-15(17)--------
4.--------------------------------
5.--------------------------------
6.--------------------------------


1.--------------------------------
2.--------------------------------
3.-12-10-12----------10(12)(10)---
4.----------13-10-13------------13
5.--------------------------------
6.--------------------------------


1.--------------------------------
2.--------------------------------
3.-10-----------------/12------17-
4.----13-10-------13-------/17----
5.----------13h15-----------------
6.--------------------------------


1.-------------------------19(20)-
2.-15(16)(15)(16)(15)-13----------
3.--------------------------------
4.--------------------------------
5.--------------------------------
6.--------------------------------



"Siento paz en mi alma...


  (0:38)
1.--------------------------------
2.--------------------------------
3.-10(12)-10(12)--10(12)(10)-8----
4.-----------------------------10-
5.--------------------------------
6.--------------------------------

  (0:49)
1.--------------------------------
2.-------4-------4-3-------4-3----
3.-----5-----------------------5-3
4.---5--------5---------5---------
5.-3--------3---------3-----------
6.--------------------------------


1.--------------------------------
2.----------4-------4-3-------4---
3.------------------------------5-
4.--------5------5---------5------
5.-6-8--3------3---------3--------
6.-4-6----------------------------


1.---------
2.---------
3.---------
4.---------
5.--5-5--3-
6.--3-3--1-...




No hay comentarios:

Publicar un comentario