.

banners

Nocturnal. Amaral.

www.tabsfacil.es.
Tablaturas fáciles para guitarra.

   Soy un consumidor nato de cada una de las "atmósferas" que crean Amaral en sus discos y reconozco que la que consiguen en este "Nocturnal" es sencillamente genial. También es cierto que mucha culpa de ello la tienen las guitarras de Juan Aguirre, sí, ya sé que no es el estilo que más me gusta, ni a el que os tengo acostumbrados en este blog pero, soy de los que piensa que no siempre tocar la guitarra es arremeter con riffs a velocidades endiabladas, de vez en cuando la lentitud, puede ser sinónimo de técnica y en este caso se confirma lo que digo. El caso es que os quiero dejar unos momentos en tablatura del tema "Nocturnal" perteneciente al último disco de Amaral.

  Un saludo.
  TabsFácil.








Nocturnal. Amaral.


(1:52)


1.-----------------------------------|

2.------------7-8-10-8---------------|
3.--------7-9----------9--9/-7-7-9-7-|
4.-7-9-10----------------------------|

5.-----------------------------------|

6.-----------------------------------|

1.-----------------------------------|

2.------------------7-8-10-8------8-7|
3.--------------7-9----------9--9----|
4.-10-9--7-9-10----------------------|
5.-----------------------------------|
6.-----------------------------------|

1.------------------|

2.--------7--10-8---|
3.-9--7-9---------9-|
4.------------------|
5.------------------|
6.------------------|



No hay comentarios:

Publicar un comentario