.

banners

Tablatura fácil de...Mystery of a red rose. Avantasia.

   Con esta fácil tablatura hoy nos adentramos en el mundo de Tobias Sammet y su Avantasia, aprovechando la salida inminente de su nuevo trabajo del que ya tenemos portada, aquí la puedes ver, título "Ghostlights" y tema adelanto, "Mystery of red rose".
  La tablatura corresponde al inicio del tema, espero que os guste y la disfrutéis.
  Un saludo.
  TabsFácil.





Mystery of a red rose. Avantasia.


(Guitarra 1)

1.-------/14-13----14-13--------------------|
2.--------------14-------14--------13-14-16-|
3.--------------------------15--15----------|
4.------------------------------------------|
5.------------------------------------------|
6.------------------------------------------|


(Guitarra 2)

1.------------------------------------------|
2.------------------------------------------|
3.------------------------------------------|
4.-3--3----3---------------11--10--8--------|
5.-1--1-//-1--6--4----------9---8--6--------|
6.------------4--2--------------------------|



(Guitarra 1)

1.-14-13----14-13--14(16)-----------------|
2.-------14---------------14-13-----------|
3.--------------------------------/15-13--|
4.----------------------------------------|
5.----------------------------------------|
6.----------------------------------------|


(Guitarra 2)

1.----------------------------------------|
2.----------------------------------------|
3.----------------------------------------|
4.--10----------6-------------------------|
5.--8--4--6-----4-4-4-4-4-4-4-4-8---------|
6.-----2--4---------------------6---------|


(Guitarra 1)

1.---------|
2.---------|
3.--11-----|
4.-----15--|
5.---------|
6.---------|...


(Guitarra 2)

1.------------|
2.------------|
3.------------|
4.------------|
5.---------8--|
6.---------6--|...


(2:22) (Guitarra 1)

1.-/14-13----13------14-13----13-------|
2.--------14---14-14-------14----14-14-|
3.-------------------------------------|
4.-------------------------------------|
5.-------------------------------------|
6.-------------------------------------|


1.-14-13----------------------|
2.-------14---19(21)-19-18----|
3.-------------------------18-|
4.----------------------------|
5.----------------------------|
6.----------------------------|...



No hay comentarios:

Publicar un comentario