.

banners

Tablatura fácil de...Fatal illusion. Megadeth.

  Otro riff fácil en tablatura para los amantes de esta banda de la que
ríos de tinta han corrido desde que se anunciara la salida de Chris Broderick y Shawn Drover, sustituidos por Chris Adler y Kiko Loureiro, y después de tanto esperar ya tenemos título "Dystopia", portada del disco, fecha, 22 de Enero y tema adelanto, "Fatal illusion", del que como siempre, os quiero dejar unos momentos en tablatura.
   Un saludo.
   TabsFácil.



Fatal illusion. Megadeth.

   (1:13)
1.-------------------------------
2.-------------------------------
3.-------------------------------
4.-------------------------------
5.--5-3--3---3-6-5-3---5-3-----7-
6.---------5---------6-----6-3-5-

1.-------------------------------
2.-------------------------------
3.-------------------------------
4.-------------------------------
5.--5-3--3---3-6-5-3---5-3-----7-
6.---------5---------6-----6-3-5-

1.-------------------------------
2.-------------------------------
3.-------------------------------
4.-------------------------------
5.--5-3--3---3-6-5-3---5-3-----7-
6.---------5---------6-----6-3-5-

1.------------------------
2.------------------------
3.------------------------
4.------------------------
5.--5-3--3---3--8-8-8-8-8-
6.---------5----6-6-6-6-6-...




No hay comentarios:

Publicar un comentario en la entrada