.

banners

Tabs fácil de... Evil twin. Anthrax.


"For all kings" es el título con el que, el 26 de Febrero de 2016, la legendaria banda y padres del thrash metal, Anthrax, regresaban al panorama musical internacional después de 4 años de inactividad.
  Unos días antes nos dejaban portada y tema adelanto "Evil twin" del que como siempre os quiero dejar unos momentos en tablatura que, espero que disfrutéis.
  Un saludo.
  TabsFácil.





Evil twin. Anthrax.

1.-------------------------------------
2.-------------------------------------
3.-------------------------------------
4.--6-7-8--6-7-8--------4h6-7-8--6-7-8-
5.---------------6-6-6-----------------
6.-------------------------------------

1.-----------------------
2.-----------------------
3.-----------------------
4.--3-/6-6--6-7-8--6-7-8-
5.--1-/4-4---------------
6.----------------------...

(0:22)

1.--------------------------------
2.--------------------------------
3.--------------------------------
4.--------------------------------
5.--------------------------------
6.--4-4-4-7-7-2-2-5-5-2-2-5-5-2-4-

1.--------------------------------
2.--------------------------------
3.--------------------------------
4.--------------------------------
5.--------------------------------
6.--4-4-4-7-7-2-2-5-5-2-2-5-5-2-4-

1.--------------------------------
2.--------------------------------
3.--------------------------------
4.--------------------------------
5.--------------------------------
6.--4-4-4-7-7-2-2-5-5-2-2-5-5-2-4-


1.--------------------------------
2.--------------------------------
3.--------------------------------
4.--------------------------------
5.----------------7--7------------
6.--4-4-4-7-7-2-2-5--5--5-5-5-5-5-


1.--------------------------------
2.--------------------------------
3.--------------------------------
4.--------------------------------
5.--------------------------------
6.--4-2-4--5-5-5-5-5-5-4-2-4--5-5-


1.--------------------------------
2.--------------------------------
3.--------------------------------
4.--------------------------------
5.--------------------------------
6.-5-5-5-5-5-5--5-5-5-5-5-7-5-4-5-...


No hay comentarios:

Publicar un comentario en la entrada