.

banners

Tabs fácil de...Everybody use your goddamn turn signal. Paul Gilbert.

  Otro riff en Tablatura fácil del último trabajo del genio de la guitarra Paul Gilbert "I can destroy" del que todavía no podemos disfrutar nada más que a través de pequeños fragmentos que se encuentran en Youtube.
 "Everybody use your goddamn turn signal" se llama el tema al que pertenece este riff con el que puedes practicar, aprender y divertirte.
  Un saludo.
  TabsFácil.





Everybody use your goddamn turn signal. Paul Gilbert.



1.---------------------------------|
2.---------------------------------|
3.--------------------------2-2--2-|
4.--------------------2-2h4--------|
5.---------------------------------|
6.-12/--2-2-2-2h5/-7---------------|

1.---------------------------------|
2.---------------------------------|
3.---------------------------------|
4.-2h4h2----------------------2-2h4
5.-------4h2(4)--------------------|
6.--------------2-2-2-2h5/-7-------|

1.-------------|
2.-------------|
3.-2-2--2------|
4.-----------2-|
5.---------4---|
6.-------------|...

No hay comentarios:

Publicar un comentario