.

banners

Tablatura fácil de...Indomable. Alquimia.


"Espiritual" lleva por título el nuevo trabajo de Alquimia, la nueva banda de Alberto Rionda, sin duda uno de los nombres propios de la guitarra en este país.
  Después de varios adelantos ya podemos disfrutar de todo el disco y para los que vais más allá, aquí os dejo un momento en tablatura del tema "Indomable".
  Un saludo.
  TabsFácil.





Indomable. Alquimia.

 
  (0:17)

1.-10h11h10h8h10--10h11h10h8h10--|
2.-------------------------------|
3.-------------------------------|
4.-------------------------------|
5.-------------------------------|
6.-------------------------------|

1.-10h11h10h8-----------------8-|
2.------------10-9-7-6-7-9-10---|
3.------------------------------|
4.------------------------------|
5.------------------------------|
6.------------------------------|

1.-10h11h10h8--10h11h10h8h10--10h11h-|
2.-----------------------------------|
3.-----------------------------------|
4.-----------------------------------|
5.-----------------------------------|
6.-----------------------------------|

1.-10h8--------------------|
2.------10-----------------|
3.---------------5---7-----|
4.-----------5---3---5---7-|
5.-----------3-----------5-|
6.-------------------------|...

(0:25)
1.--------------------------------------|
2.--------------------------------------|
3.------------------------------5--7----|
4.---------------------------5--3--5--7-|
5.--5-5-5-5-5-5-5-5-5-5-5-5--3--------5-|
6.------------------------------------...


No hay comentarios:

Publicar un comentario en la entrada