.

banners

Tabs fácil de...Empire of the clouds. Iron maiden.


  El 4 de Septiembre salía a la calle el último trabajo de Iron maiden, un álbum que alcanzaba el nº 1 en infinidad de listas de todo el mundo y que atesoraba datos como, ser el disco más largo de la banda y el primer disco doble de los ingleses.
   "Empire of the clouds" es un tema perteneciente al último trabajo del que ahora os voy a dejar unos momentos en  tablatura.
  Espero que os guste y disfrutéis.
  Un saludo.
  TabsFácil.




Empire of the clouds. Iron maiden.

(6:31)
1.-------------------------------------
2.-8-7-5---5--5-5--8-7--8-7-5---5--5-5-
3.-------7--------------------7--------
4.-------------------------------------
5.-------------------------------------
6.-------------------------------------

1.-------------------------------------
2.------8-7-5---5--5-5--8-7--8-7-5---5-
3.-7-9--------7--------------------7---
4.-------------------------------------
5.-------------------------------------
6.-------------------------------------


1.---------
2.-5-5-----
3.-----7-7-
4.---------
5.---------
6.---------...

(7:18)
1.-------------------------------------
2.-------------------------------------
3.-------5-7--5-----------5----------5-
4.-5-7-9--------9-7-5-7-9---9--5-7-9---
5.-------------------------------------
6.-------------------------------------


1.-------------------------------------
2.-------------------------------------
3.-7-5------------------------5-7--5---
4.-----9-7-9--7-7--9-7--5-7-9--------9-
5.-------------------------------------
6.-------------------------------------


1.-------------------------------------
2.-------------------------------------
3.---------5----------5-7-5------------
4.-7-5-7-9---9--5-7-9-------9-7-9--7-7-
5.-------------------------------------
6.-----------------------------------...

(8:12)
1.-------------------------------------
2.-------------------------------------
3.--------7-9--7-------------7---------
4.-7-9-10--------10-9-7-9-10---10--9-10
5.-------------------------------------
6.-------------------------------------


1.-------------------------------------
2.-------------------------------------
3.----9-11--9---------------9----------
4.-12---------12-10-9-10-12---12--10-12
5.-------------------------------------
6.-------------------------------------


1.------------------------------------
2.------------------------------------
3.----10-12--10----------------10-----
4.-14-----------14-12-10-12-14----14--
5.------------------------------------
6.------------------------------------


1.-------------------------------------
2.-------------------------------------
3.----------12-14-12----------------12-
4.-12-14-15----------15-14-12-14-15----
5.-------------------------------------
6.-------------------------------------


1.-------------------------------------
2.-------------------------------------
3.--------------14-16--14--------------
4.-15--14-15-17-----------17-16-14-16--
5.-------------------------------------
6.-------------------------------------


1.-------------------------------------
2.-------------------------------------
3.----14--------------14-16--14--------
4.-17----17--14-15-17------------17-16-
5.-------------------------------------
6.-------------------------------------


1.----------------------------
2.----------------------------
3.----------14----------------
4.-14-16-17----17-------------
5.-----------------2-2-2--2-2-
6.-----------------0-0-0--0-0-...

(8:36)
1.-------------------------------------
2.-------------------------------------
3.--------2-4-2------------2-4-2-------
4.--2-4-5-------5-4--2-4-5-------5-4-2-
5.-------------------------------------
6.-------------------------------------


1.-------------------------------------
2.-------------------------------------
3.-----2-4-2-----------2-4-2-----------
4.-4-5-------5-4-2-4-5-------5-4-2-4-5-
5.-------------------------------------
6.-------------------------------------


1.--------
2.--------
3.--2-4-2-
4.--------
5.--------
6.--------...

(9:13)
1.------------------------------------
2.------------------------------------
3.-------2---2-4-2---2------------2---
4.-2-4-5---5-------5---5-4--2-4-5---5-
5.------------------------------------
6.------------------------------------


1.------------------------------------
2.------------------------------------
3.--2-5-4-2-4-2----------2---2-4-2---2
4.--------------5--2-4-5---5-------5--
5.------------------------------------
6.------------------------------------


1.-----------------------------------
2.-----------------------------------
3.--------5-4-2--4-2---4-2---2-------
4.--5-4-2------------5-----5---5-4-2-
5.-----------------------------------
6.-----------------------------------


1.-----------------------------------
2.-----------------------------------
3.------2---2-4-2---2------------2---
4.--4-5---5-------5---5-4--2-4-5---5-
5.-----------------------------------
6.-----------------------------------


1.------------------------------------
2.------------------------------------
3.--2-5-4--2-4-2---------2---2-4-2---2
4.---------------5-2-4-5---5-------5--
5.------------------------------------
6.------------------------------------


1.------------------------------------
2.------------------------------------
3.------5-4-2-4-2---2-----------------
4.--5-4-----------5---5-4-5-4-2---4-5-
5.------------------------------5-----
6.------------------------------------


1.----------------------------------
2.----------------------------------
3.----------------------------------
4.--7-5-4---4-5-7-5-4---4-5-7-5-4---
5.--------5-----------5-----------5-
6.----------------------------------


1.---------------
2.---------------
3.---------------
4.--4-5-7-5-4--2-
5.---------------

6.---------------...

No hay comentarios:

Publicar un comentario