.

banners

Tablatura fácil de...Arabestia. Paco Ventura.


  Ilusión y ambición, algunos de los adjetivos que rebosan en el nuevo trabajo en solitario de uno de los guitarristas de referencia en España como es Paco Ventura.
  "Black moon" lleva por título un trabajo lleno de colaboraciones estelares y de temas espectaculares como este "Arabestia" del que hoy os quiero dejar unos momentos en tablatura que, espero como siempre que os guste y disfrutéis.
  Un saludo.
   TabsFácil.



Arabestia. Paco Ventura.

1.------------------------------------|

2.------------------------------------|
3.------------------------------------|
4.-2-2--2-2-3-2-2--2-2-3-2-2--2-2-3-2-|
5.------------------------------------|
6.------------------------------------|

1.-----------------------------------|

2.-----------------------------------|
3.--1-2-4----------------------------|
4.---------2-2--2-2-3-2-2--2-2-3-2-2-|
5.-----------------------------------|
6.-----------------------------------|

1.---------------|

2.---------------|
3.---------1-2-4-|
4.-2-2-3-2-------|
5.---------------|
6.---------------|

1.------------------------------------|

2.------------------------------------|
3.------------------------------------|
4.-2-2--2-2-3-2-2--2-2-3-2-2--2-2-3-2-|
5.------------------------------------|
6.------------------------------------|

1.-----------------------------------|

2.-----------------------------------|
3.--1-2-4----------------------------|
4.---------2-2--2-2-3-2-2--2-2-3-2-2-|
5.-----------------------------------|
6.-----------------------------------|

1.---------------|

2.---------------|
3.---------1-2-4-|
4.-2-2-3-2-------|
5.---------------|
6.---------------|


  (0:21)

1.--------------------------------|
2.--------------------------------|
3.--------------------------------|
4.--12h10h9--10h9h7--9h7h6--7h6h3-|
5.--------------------------------|
6.--------------------------------|


1.-------------------------------------|

2.-----------------17-17------------15-|
3.-----------------------16--16-16-----|
4.--2(3)(2)(3)(2)----------------------|
5.-------------------------------------|
6.-------------------------------------|

1.-------------------------------------|

2.-13-12-------------------------------|
3.-------14--13-14--/16----------------|
4.-----------------------18-15-14h15h14|
5.-------------------------------------|
6.-------------------------------------|

1.-------------------------------------|

2.----------------------17h12--12-12-12|
3.-9h7--7-5--4h5h4---------------------|
4.-----------------7-6-----------------|
5.-------------------------------------|
6.-------------------------------------|

1.-------------------------------------|

2.-17-17-17-12--/15-13-----------------|
3.---------------------16-14--13-14-16-|
4.-------------------------------------|
5.-------------------------------------|
6.-------------------------------------|

1.-----------|

2.-----------|
3.--13-------|
4.-----15-14-|
5.-----------|
6.-----------|...

No hay comentarios:

Publicar un comentario en la entrada