.

banners

Tabs fácil de...Treat her right. Billy Gibbons.

 
 
Hoy en TabsFácil, Billy Gibbons, uno de los barbudos componentes de la mítica banda ZZTop, que se lanzaba hace unos meses en solitario con un disco que titula "Perfectamundo". 
  Por lo visto el disco ha sido grabado en lugares tan dispares como Houston o Pontevedra y abarca géneros igual de lejanos ó no, según se mire, como pueden ser el rock y los ritmos afrocubanos.
   Os quiero dejar en tablatura unos momentos pertenecientes al tema que sirvió de adelanto "Treat her right" que espero que os guste y disfrutéis.
  Un saludo.
  TabsFácil.




Treat her night. Billy Gibbons.


   (2:00)
1.-------------------------------------
2.-------------------------------------
3.--------------------------------(HH)-
4.---10---10(11)(10)h8--------8-10(11)-
5.---------------------10--10----------
6.-------------------------------------

1.-------------------------------------

2.-------------------------------------
3.-------------------------------------
4.-10-8-10-12--10-8-10-8--------8h10h8-
5.-----------------------10-10---------
6.-------------------------------------


1.-------------------------8-8(9)(8)-6-
2.------------------8-8-11-------------
3.---------10-12-10--------------------
4.-------------------------------------
5.--8h10-------------------------------
6.-------------------------------------


1.--6---6------------------------------
2.----8---6-8---6----------------------
3.------------7---3-5------------------
4.--------------------5-----8-10-10(11)
5.-----------------------10------------
6.-------------------------------------


1.-------------------------------------
2.-------------------------------------
3.--7--------7-----5h3-5/6h3-----------
4.----10(11)---10------------5h3-5-3---
5.-----------------------------------5-
6.-------------------------------------


1.---------------
2.---------------
3.---------------
4.--3------------
5.----3h1-3h1----
6.-------------3-

No hay comentarios:

Publicar un comentario