.

banners

Tabs fácil de...Sugar mama. Led Zeppelin.

  En Tablaturas faciles para guitarra no podía faltar uno de esos grupos, en este caso el grupo por el que no pasan los años, aún hoy siguen siendo actualidad y sonando en emisoras de radio y spot de T.V.
  Aprovechando la reciente reedición de alguno de sus discos, os dejo el riff de uno de sus clásicos, que espero que os guste, disfrutéis y os sirva por qué no, de inspiración para vuestras creaciones.
  Un saludo.
  TabsFácil.





Sugar mama. Led Zeppelin.

1.---------------------------------------|
2.---------------------------------------|
3.--6-6--6-6--6-6--6--------6-6--6-6--6-6
4.--8-8--8-8--8-8--8-7-6-5--8-8--8-8--8-8
5.---------------------------------------|
6.---------------------------------------|

1.---------------------------------------|
2.-----------6-6-6--6-6-6--6-6-6---------|
3.--6--------6-6-6--6-6-6--6-6-6--6-5-4-3
4.--8-7-6-5--8-8-8--8-8-8--8-8-8--8-7-6-5
5.---------------------------------------|
6.---------------------------------------|...

  (0:31)
1.---------------------------------------|
2.---8--8--8---8--8--8---8--8--8---------|
3.---8--8--8---8--8--8---8--8--8--8--7-6-|
4.--10-10-10--10-10-10--10-10-10--10-9-8-|
5.---------------------------------------|
6.---------------------------------------|

1.---------------------------------------|
2.-----6-6-6--6-6-6--6-6-6---------------|
3.--5--6-6-6--6-6-6--6-6-6--6-5-4-3------|
4.--7--8-8-8--8-8-8--8-8-8--8-7-6-5--6---|
5.-----------------------------------4--8
6.--------------------------------------6

1.-----|
2.-----|
3.-----|
4.--6--|
5.--4--|
6.----|...



No hay comentarios:

Publicar un comentario en la entrada