.

banners

Aprende a tocar...Someone like you. Adele.


  

 Una tablatura fácil de un bonito tema, "Someone like you" de la todopoderosa y bate récords Adele. Se trata de una adaptación para guitarra de unos arpegios de piano que bien nos sirve para practicar y cómo no para divertirnos un buen rato....
  
    Un saludo.
    TabsFácil.





Someone like you. Adele

(intro piano)

1.---------------------------------|
2.-----5-------5-------5-------5---|
3.---6---6---6---6---6---6---6---6-|
4.-7-------7-------7-------7-------|
5.---------------------------------|
6.---------------------------------|

1.---------------------------------|
2.-----5-------5-------5-------5---|
3.---6---6---6---6---6---6---6---6-|
4.-6-------6-------6-------6-------|
5.---------------------------------|
6.---------------------------------|

1.---------------------------------|
2.-----7-------7-------7-------7---|
3.---6---6---6---6---6---6---6---6-|
4.-4-------4-------4-------4-------|
5.---------------------------------|
6.---------------------------------|

1.-----------------------------------|
2.-----7--------7--------7-------7---|
3.---7---7----7---7----7---7---7---7-|
4.-----------------------------------|
5.-5--------5--------5-------5-------|
6.-----------------------------------| . .


1 comentario: