.

banners

Aprende a tocar...Set fire to the rain. Adele.

   Me encanta el heavy metal, pero de vez en cuando escucho temas de otros estilos que me gustan, me emocionan, en fin, eso es lo que me ha pasado con este y con ese principio de piano, el cual me he atrevido a pasar a guitarra. Una versión muy mía más que un tabs, que espero os guste u os sirva para acabar vuestra adaptación. 
  Un saludo.
  TabsFácil.





Set fire to the rain. Adele




1.-5--------5--------5--------5-6-5----------------|
2.-----6--------6--------6----------8---5---8---5--|
3.---7---7----7----5---7---7----------5---5---5---5
4.-------------------------------------------------|
5.-------------------------------------------------|
6.-------------------------------------------------|

1.---6----------6--------|
2.---------8----------5--|
3.-----7-7---7----7-7----|
4.-----------------------|
5.-----------------------|
6.-----------------------|
|
 1.-5--------5--------5--------5-6-5---------------|
2.-----6--------6--------6----------8---5---8---5-|
3.---7---7----7----5---7---7----------5---5---5---5
4.------------------------------------------------|
5.------------------------------------------------|
6.------------------------------------------------|

1.---6----------6---------|
2.---------8----------5---|
3.-----7-7---7----7-7-----|
4.------------------------|
5.------------------------|
6.------------------------|

1.-5--------5--------5--------5-6-5----------------|
2.-----6--------6--------6----------8---5---8---5-6
3.---7---7----7----5---7---7----------5---5---5----|
4.-------------------------------------------------|
5.-------------------------------------------------|
6.-------------------------------------------------|
                                        
1.-------------------|
2.-----5---6-5-3-5---|
3.---5---5-----------|
4.-------------------|
5.-------------------|
6.-------------------|

(0:44)
1.-----6-----6-----6-----6------5-------5-------5----|
2.---8-----8-----8-----8------6---6---6---6---6---6--|
3.-7-----7-----7-----7------5-------5-------5-------5
4.---------------------------------------------------|
5.---------------------------------------------------|
6.---------------------------------------------------|

1.-----6------6-------5-----------|
2.---8------8------6----6---------|
3.-7------7------5--------5-------|
4.---------------------------3----|
5.------------------------------3-|
6.--------------------------------|...


No hay comentarios:

Publicar un comentario