.

banners

Tablatura fácil de...I can destroy. Paul Gilbert.

  No podía faltar en un blog dedicado a la guitarra, alguna tablatura de Paul Gilbert, uno de los grandes sin lugar a dudas. En este caso de su último trabajo que de momento no ha salido publicado por Europa ni EEUU., ó eso tengo entendido, al parecer solo se ha publicado en Japón...
  Sea como fuere, si podemos disfrutar de pequeños fragmentos que él mismo desgrana en algunos vídeos de YouTube, como es el caso de esta tablatura, aunque en realidad la he sacado de un cover que circula en la red.
  Saludos.
  TabsFácil.





I can destroy. Paul Gilbert.



1.-------9----------------|
2.---------12-------------|
3.----9--------9-8-9--11-9
4.-11---------------------|
5.------------------------|
6.------------------------|

1.------------------------|
2.----9-7-9-7-------------|
3.-11---------9-8-9-8-6---|
4.----------------------9-7
5.------------------------|
6.------------------------|

1.-9------9------9-------|
2.-----------------------|
3.-----------------------|
4.---7-6----6------------|
5.------------9-----9-7--|
6.-----------------------|...




No hay comentarios:

Publicar un comentario en la entrada