.

banners

Tabs fácil de...Blues of desperation. Joe Bonamassa

  Desde Tabs Fácil quiero recordarte la inminente salida del nuevo trabajo de Joe Bonamassa, "Blues of Desperation" previsto para Marzo, pero que ya puedes reservar desde su página o escucharlo desde este enlace...
  También te invito a que practiques y te diviertas con el riff principal del tema que da título al disco "Blues of desperation" y que cómo no podía ser de otra manera encontrarás aquí, en tabsfácil.blogspot.com
  Un saludo.
  TabsFácil.





Blues of desperation. Joe Bonamassa




1.--------------------------------------|
2.--------------------------------------|
3.------------------5-------------------|
4.--------------------------------------|
5.---------------3--------8-----8h10-10-|
6.--6h5h3/-1h3h5-------10----10---------|

1.--------------------------------------|
2.--------------------------------------|
3.------------------5-------------------|
4.--------------------------------------|
5.---------------3-------3-----3--5-----|
6.--6h5h3/-1h3h5-------6----6-----3-----|...

No hay comentarios:

Publicar un comentario en la entrada