.

banners

Aprende a tocar...Are you with me. Lost frequencies.

  ¿Aprender a tocar la guitarra al ritmo de Lost Frequencies? ¿Por qué no?
  Lost frequencies es el nombre artístico de un Dj y productor musical de nacionalidad belga cuyo tema más conocido, sin lugar a dudas es este "Are you with me", el cuál tiene ya más de un año desde que se publicó y cuyo video oficial tiene nada más y nada menos que 84 millones de visitas en Youtube.
    He querido plasmar en tablatura para la guitarra el ritmo inicial y principal del tema, el cuál espero que os guste y disfrutéis.
   Un saludo.
   TabsFácil.





Are you with me. Lost frequencies.

1.----------------------------------|
2.--9-9-9-9-------------------------|
3.----------10-10-10-10-------------|
4.----------------------10-10-10-10-|
5.----------------------------------|
6.----------------------------------|

1.----------------------------------|
2.---------------9-9-9-9-/6-6-6-6---|
3.--12-12-12-12-------------------5-|
4.----------------------------------|
5.----------------------------------|
6.----------------------------------|

1.----------------------------------|
2.----------------------9-9-9-9-/6-6
3.--5-5-5-/12-12-12-12--------------|
4.----------------------------------|
5.----------------------------------|
6.----------------------------------|

1.------------------------|
2.--6-6-------------------|
3.------5-5-5-5-/12-12-12-|
4.------------------------|
5.------------------------|
6.------------------------|...


No hay comentarios:

Publicar un comentario