.

banners

Aprende a tocar... Bob Esponja.


    Este tema se ha convertido en un clásico para miles y miles de niños y no tan niños. También es verdad que ya hay tablaturas del tema, covers, etc., pero bueno, me apetecía que Bob Esponja estuviera en este blog y aquí está, unos momentos en tablatura de mi interpretación de un tema que, como decía antes hace las delicias de niños y, no tanto.
   Un saludo.
   TabsFácil.


   


Bob Esponja.

1.---------------------------------
2.--3-3h5h3------3-3h5h3---3-3-3-3-
3.----------4------------4---------
4.------------5--------------------
5.---------------------------------
6.---------------------------------

1.--3-3h5h3------3-3h5h3-----------
2.----------5------------5--3-3-3-3
3.------------5--------------------
4.---------------------------------
5.---------------------------------
6.---------------------------------

1.---------------------------------
2.--3-3h5h3------3-3h5h3---3-3-3-3-
3.----------4------------4---------
4.------------5--------------------
5.---------------------------------
6.---------------------------------

1.--3-3h5h3------3-3h5h3-----------
2.----------5------------5--3-3-3-3
3.------------5--------------------
4.---------------------------------
5.---------------------------------
6.---------------------------------

1.--3--------3--------3------------
2.----5-3------5-3------5-3-----3-3
3.--------4--------4--------4------
4.---------------------------------
5.---------------------------------
6.---------------------------------

1.-------2-2--3----3-
2.--5-5----------3---
3.-------------------
4.-------------------
5.-------------------
6.-------------------...


No hay comentarios:

Publicar un comentario