.

banners

Tablatura fácil de...Death or glory. Iron Maiden.


 Algo que nunca falta en un disco de Iron Maiden son los riffs de guitarra, y es que para eso tienen en sus filas nada menos que tres guitarristas. Riffs como los que hoy os quiero dejar en tablatura, pertenecientes al tema "Death or glory"que espero como siempre que os gusten y disfrutéis.
  Un saludo.
  TabsFácil.

Death or glory. Iron maiden.



1.---------------------------------
2.---------------------------------
3.-7h6h4---4-6-7h6h4---4-6-7h6h4---
4.-------7-----------7-----------7-
5.---------------------------------
6.---------------------------------

1.-------------
2.-----------5-
3.-4-6-7h6h4---
4.-------------
5.-------------
6.-------------...

1.--------------------------------
2.--------------------------------
3.--------------------------------
4.-----7---9--------------7---9---
5.-----5---7---10-9-7-----5---7---
6.-0-0---0---0--------0-0---0---0-

1.---------------------------------
2.---------------------------------
3.---------------------------------
4.---------------------------------
5.-10-9-7-----5-5-5-3-2------------
6.--------3-3-----------3-3--3-3-3-

1.---------------------------------
2.---------------------------------
3.---------------------------------
4.-----------------7---9-----------
5.-----------------5---7---10-9-7--
6.-5-5--5-3-2-0--0---0---0--------0

1.---------------------------
2.---------------------------
3.---------------------------
4.---7---9-----------7--7----
5.---5---7---10-9-7--5--5--2-
6.-0---0---0---------------0-...


(1:19) "Death or glory..."
1.----------------------------------
2.----------------------------------
3.----------------------------------
4.-----------5--------------------5-
5.--2--5--7--3--2--5--7--2--5--7--3-
6.--0--3--5-----0--3--5--0--3--5----

1.----------
2.----------
3.----------
4.--------7-
5.--2--5--5-
6.--0--3----

1.--------------------------------
2.--------------------------------
3.--------------------------------
4.-----7---9--------------7---9---
5.-----5---7---10-9-7-----5---7---
6.-0-0---0---0--------0-0---0---0-

1.------------------------------------
2.------------------------------------
3.------------------------------------
4.------------------------------------
5.-10-9-7-----5-5-3-3-2-2-------------
6.--------3-3-------------3-3-3--3-3-3

1.-----------------------------------
2.-----------------------------------
3.-----------------------------------
4.-------------------7---9-----------
5.-------------------5---7---10-9-7--
6.-5-5-5--5-3-2-0--0---0---0--------0

1.---------------------------
2.---------------------------
3.---------------------------
4.---7---9-----------7--7----
5.---5---7---10-9-7--5--5--2-
6.-0---0---0---------------0-...

(2:57)
1.---------------------------------
2.---------------------------------
3.-7h6h4---4-6-7h6h4---4-6-7h6h4---
4.-------7-----------7-----------7-
5.---------------------------------
6.---------------------------------

1.-------------
2.-----------5-
3.-4-6-7h6h4---
4.-------------
5.-------------

6.-------------...

No hay comentarios:

Publicar un comentario