.

banners

Tabs fácil de...Arrow of time. Queensrÿche.


    El 2 de Octubre salía a la venta "Condition hüman" el último trabajo discográfico de Queensrÿche. Un álbum que desde el primer día entró de lleno en numerosas listas de éxitos de todo el mundo.
  El disco abre con "Arrow of time" un tema en el que desde las primeras notas ya se adivina el sonido Queensrÿche de toda la vida
y es de éste mismo del que os quiero dejar unos momentos en tablatura, esperando como siempre que os guste y disfrutéis.
  Un saludo.
  TabsFácil.




Arrow of time. Queensrÿche.

1.-------------------------------|
2.--3-7--3-5--3-7--3-5-7-5-3-----|
3.---------------------------6-4-|
4.-------------------------------|
5.-------------------------------|
6.-------------------------------|

1.-------------------------------|
2.--3-7--3-5--3-7--3-5-7-5-3-----|
3.---------------------------6-4-|
4.-------------------------------|
5.-------------------------------|
6.-------------------------------|

1.-------------------------------|
2.--3-7--3-5--3-7--3-5-7-5-3-----|
3.---------------------------6-4-|
4.-------------------------------|
5.-------------------------------|
6.-------------------------------|

1.-------------------------------|
2.--3-7--3-5--3-7--3-5-7-5-3-----|
3.---------------------------6-4-|
4.-------------------------------|
5.-------------------------------|
6.-------------------------------|...

   Guitarra 2 desde (0:09)
1.---------------------------------------|
2.---------------------------------------|
3.---------------------------------------|
4.-4---6---7---9-11--4---6---7---9-----9-|
5.-2---4---5---7-9---2---4---5---7-/10-7-|
6.-------------------------------------|...


No hay comentarios:

Publicar un comentario