.

banners

Aprende a tocar al estilo de... Dangerous. Def Leppard.


 Después de casi 7 años, ya está fuera, el último plástico de Def Leppard, mucho ha pasado desde su último trabajo pero, ellos vuelven con la misma fuerza, quizás por eso lo hayan titulado "Def leopard"...

  Os quiero dejar unos momentos en tablatura de uno de los temas que fue adelanto del disco "Dangerous" y que suena a "Hysteria" por todos lados, espero que os guste y lo disfrutéis.
  Un saludo.
  TabsFácil.



Dangerous. Def Leppard.

1.----------------------------------
2.----------------------------------
3.----7-8---5-7-8---5-8-8-------8---
4.--8-----8-------8-------8-6-8---6-
5.----------------------------------
6.----------------------------------

1.----------------------------------
2.----------------------------------
3.----7-8---5-7-8-------8-------8---
4.--8-----8-------8-6-8---6-5-8---6-
5.----------------------------------
6.----------------------------------

1.----------------
2.----------------
3.----7-8---5-7-8-
4.--8-----8-------
5.----------------
6.---------------...

  (0:17)
1.----------------------------------
2.----------------------------------
3.--7-7-7-7-5---8-8-----------7-7-7-
4.------------8---------------------
5.--------------------6-6--8--------
6.-------------------/4-4--6--------

1.----------------------------------
2.-------------9-9-9-8--------------
3.--7-5---8-8--------------7-7-7-7-5
4.------8---------------------------
5.----------------------8-----------
6.----------------------6-----------

1.----------------------------------
2.----------------------------------
3.----8-8-----------7-7-7-7-5---8-8-
4.--8-------------------------8-----
5.----------6-6--8------------------
6.---------/4-4--6------------------

1.-------------
2.--9-9-9-8----
3.-------------
4.-------------
5.-----------8-
6.-----------6-...

  (1:26) "Dangerous...
1.----------------------------------
2.----------------------------------
3.----7-8---5-7-8---5-8-8-------8---
4.--8-----8-------8-------8-6-8---6-
5.----------------------------------
6.----------------------------------

1.----------------------------------
2.----------------------------------
3.----7-8---5-7-8-------8-------8---
4.--8-----8-------8-6-8---6-5-8---6-
5.----------------------------------
6.----------------------------------

1.----------------
2.----------------
3.----7-8---5-7-8-
4.--8-----8-------
5.----------------
6.---------------...



No hay comentarios:

Publicar un comentario en la entrada