.

banners

Tabs fácil de...Adventure of a lifetime. Coldplay.

www.tabsfacil.es.
Tablaturas para guitarra.



















Adventure of a lifetime. Coldplay.

1.-17-15-17-----------------------------
2.----------17--15h17h15----------------
3.-----------------------17-------------
4.--------------------------19h17h19-17-
5.--------------------------------------
6.--------------------------------------


1.-17-15-17-----------------------------
2.----------17--15h17h15----------------
3.-----------------------17-------------
4.--------------------------19h17h19-17-
5.--------------------------------------
6.--------------------------------------


1.-15-12-15-----------------------------
2.----------17--15h17h15----------------
3.-----------------------17-------------
4.--------------------------19h17h19-17-
5.--------------------------------------
6.--------------------------------------


1.-15-12-15----------------------19-21h19
2.----------17-15h17h15------------------
3.----------------------17---------------
4.-------------------------19h17---------
5.---------------------------------------
6.---------------------------------------

1.-17-15-17-----------------------------
2.----------17--15h17h15----------------
3.-----------------------17-------------
4.--------------------------19h17h19-17-
5.--------------------------------------
6.--------------------------------------


1.-17-15-17-----------------------------
2.----------17--15h17h15----------------
3.-----------------------17-------------
4.--------------------------19h17h19-17-
5.--------------------------------------
6.--------------------------------------


1.-15-12-15-----------------------------
2.----------17--15h17h15----------------
3.-----------------------17-------------
4.--------------------------19h17h19-17-
5.--------------------------------------
6.--------------------------------------


1.-15-12-15----------------------19-21h19
2.----------17-15h17h15------------------
3.----------------------17---------------
4.-------------------------19h17---------
5.---------------------------------------
6.------------------------------------...

   (3:56)

1.-/13-13-13--13-13-12-----------------
2.---------------------15-15-15--15-13-
3.-------------------------------------
4.-------------------------------------
5.-------------------------------------
6.-------------------------------------


1.-------------------------------------
2.--15-15-/17-------/15-13-15-/17------
3.------------12-14---------------12-14
4.-------------------------------------
5.-------------------------------------
6.-------------------------------------

1.-/13-13-13--13-13-12-----------------
2.---------------------15-15-15--15-13-
3.-------------------------------------
4.-------------------------------------
5.-------------------------------------
6.-------------------------------------


1.------------------------------------------
2.-15-15-/17-------/15-13-15-/17------------
3.-----------12-14---------------12-14-14-14
4.------------------------------------------
5.------------------------------------------
6.-----------------------------------------...                        


No hay comentarios:

Publicar un comentario en la entrada