.

banners

Acordes de... Love yourself. Justin Bieber.

  Fenómeno social donde los haya este Justin Bieber, del que no paran de llegar peticiones de tabs y acordes. Así que, ahí tenéis unos momentos del tema "Love Yourself" que cuenta con la friolera de nosecuantas millones de visitas en Youtube
  Desde aquí espero que os guste y lo disfrutéis.
  Un slaudo.
  TabsFácil.








 Love yourself. Justin Bieber.


1.----------------------------------|
2.-7h9-9--7-7--5-5--10-10--9-9--7-7-|
3.----------------------------------|
4.----------------------------------|
5.----------------------------------|
6.----------------------------------|

1.----------------------------------|
2.-7h9-9--7-7--5-5--10-10--9-9--7-7-|
3.----------------------------------|
4.----------------------------------|
5.----------------------------------|
6.----------------------------------|

1.----------------------------------|
2.-7h9-9--7-7--5-5--10-10--9-9--7-7-|
3.----------------------------------|
4.----------------------------------|
5.----------------------------------|
6.----------------------------------|

1.----------------------------------|
2.-7h9-9--7-7--5-5--10-10--9-9--7-7-|
3.----------------------------------|
4.----------------------------------|
5.----------------------------------|
6.----------------------------------|

1.----------------------------------|
2.-7h9-9--7-7--5-5--10-10--9-9--7-7-|
3.----------------------------------|
4.----------------------------------|
5.----------------------------------|
6.----------------------------------|...


                  Do#m               La          Si
...My mama don't like you and she like's everyone

              Do#m               La          Si
and I don't like to admit that I was wrong

                    Do#m               La       
and I've been so caught up in my job

         Si
didn't see what's going on

              Do#m   La
and now I know

              Si
I'm better sleeping on my own

                Mi         Si      Do#m     La
Cause it you like the way you look that much

    Mi                                  La   Si
ohhhhh baby you should go and love yourself

                  Mi         Si             Do#m     La
and if you think that I'm still holding on to somethin'

            Mi                   La   Si
You should go and love yourself...




No hay comentarios:

Publicar un comentario en la entrada