.

banners

Tablatura fácil de...Victory or die. Motörhead.

www.tabsfacil.es
Tablaturas fáciles para guitarra.















Victory or die. Motörhead.

1.-----------------------------------

2.---------------2-4--2--------------
3.-------------3--------3------------
4.--3--3--3-3--------------3--3--3-3-
5.--1--1--1-1--------------1--1--1-1-
6.-----------------------------------

1.-----------------------------------

2.----2-4--2----------------2-4--2---
3.--3--------3------------3--------3-
4.--------------3--3--3-3------------
5.--------------1--1--1-1------------
6.-----------------------------------

1.-----------------------------------

2.--4-2------------------------------
3.------3--1h3-1-------1-----1-------
4.---------------3-2h3---2h3---2h1--3
5.----------------------------------1
6.---------------------------------...

No hay comentarios:

Publicar un comentario en la entrada