.

banners

Vete a dormir. El hormiguero.


  
    www.tabsfacil.es
    Tablaturas fáciles para guitarra


   
















Vete a dormir. El hormiguero.


1.-----------------------------------|
2.-/8--------------------------------|
3.----8-7----------------------------|
4.--------10---10-12-13-12-10----10--|
5.----------------------------14-----|
6.-----------------------------------|


1.-------------------------------------|
2.-------------------------------------|
3.-------------------12-11---/8-7-8-11-|
4.-10-12-13-12-10-13-------------------|
5.-------------------------------------|
6.-------------------------------------|

1.------------------------------------|
2.------------------------------------|
3.-/12-11-12-15---/15-14--------15-14-|
4.-----------------------17-13--------|
5.------------------------------------|
6.------------------------------------|

1.-----------------------------------|
2.-/8--------------------------------|
3.----8-7----------------------------|
4.--------10---10-12-13-12-10-----10-|
5.----------------------------14-----|
6.-----------------------------------|


1.--------------------------------------|
2.--------------------------------------|
3.--------------------12-11---/8-7-8-11-|
4.-10-12-13-12-10-13--------------------|
5.--------------------------------------|
6.--------------------------------------|

1.------------------------------------|
2.------------------------------------|
3.-/12-11-12-15--/15-14------14-------|
4.------------------------17----16-17-|
5.------------------------------------|
6.------------------------------------|

1.-------------------------------------|
2.----8-10-11-10-8---------------------|
3.-/7--------------12-10---8-7---------|
4.-----------------------------10-8-10-|
5.-------------------------------------|
6.-------------------------------------|

1.-----------------------------------|
2.-----------------------------15-16-|
3.-7-7---8-7----------7------15------|
4.-----------10-8-10----8/12---------|
5.-----------------------------------|
6.-----------------------------------|


1.-15-17-15-----15-17-18-17-15-14-15-17-|
2.----------15--------------------------|
3.--------------------------------------|
4.--------------------------------------|
5.--------------------------------------|
6.--------------------------------------|

1.-----------------------------------|
2.-/8--------------------------------|
3.----8-7----------------------------|
4.---------10---10-12-13-12-10----10-|
5.-----------------------------14----|
6.-----------------------------------|

1.-------------------------------------|
2.-------------------------------------|
3.-------------------12-11---/8-7-8-11-|
4.-10-12-13-12-10-13-------------------|
5.-------------------------------------|
6.-------------------------------------|

1.-----------------------------------------|
2.-----------------------------------------|
3.-/12-11-12-15--/15---14------14----------|
4.-------------------------17------16---17-|
5.-----------------------------------------|
6.-----------------------------------------|


No hay comentarios:

Publicar un comentario en la entrada