.

banners

Acordes y Tablatura fácil de...Un suspiro acompasado. Robe.


  www.tabsfacil.es
   Tablaturas fáciles para guitarra

















Un suspiro acompasado. Robe.

1.------------------------------
2.---7-7-7-5-5-5----------------
3.---------------7-7-7-6-6-6-7--
4.------------------------------
5.------------------------------
6.------------------------------

1.------------------------------
2.---7-7-7-5-5-5----------------
3.---------------7-7-7-6-6-6-7--
4.------------------------------
5.------------------------------
6.------------------------------

1.--/10-10-10-10-9-9-9-7-7-7----
2.---------------------------10-
3.------------------------------
4.------------------------------
5.------------------------------
6.------------------------------

1.-------------/10-10-10-9-9-9--
2.--10-10-/12-------------------
3.------------------------------
4.------------------------------
5.------------------------------
6.------------------------------

1.--7-7-7-------------------
2.--------10-10-10-10-10/12-
3.--------------------------
4.--------------------------
5.--------------------------
6.--------------------------

1.------------------------------
2.---7-7-7-5-5-5----------------
3.---------------7-7-7-6-6-6-7-7
4.------------------------------
5.------------------------------
6.------------------------------


1.------------------------------
2.------------------------------
3.--7-7-7-7-7-7-7-7-7-7-7-7-7-7-
4.------------------------------
5.------------------------------
6.------------------------------

1.------------------------------
2.---7-7-7-5-5-5----------------
3.---------------7-7-7-6-6-6-7-7
4.------------------------------
5.------------------------------
6.------------------------------

1.------------------------------
2.------------------------------
3.--7-7-7-7-7-7-7-7-7-7-7-7-7-7-
4.------------------------------
5.------------------------------
6.------------------------------

1.--/10-10-10-10-9-9-9-7-7-7----
2.---------------------------10-
3.------------------------------
4.------------------------------
5.------------------------------
6.------------------------------

1.------------------------------
2.--10-10-/12-12-12-12-12-12-12-
3.------------------------------
4.------------------------------
5.------------------------------
6.---------------------------...


Re              La           Sim La
He notado una brisa pasajera

Re               La                      Sim La
que me ha dicho, que tal vez, si quisiera

Mim         La               Re
Respira y noto su respiración

La                  
habla y sueño con su voz,

1.------------------
2.---------3------2-
3.-------2---2------
4.-----2-------2----
5.---0--------------
6.------------------


y con ella.

Re              La                 Sim La
Aunque ya no está, tengo mis razones

Re              La                Sim La
para ver que hay ocultas conexiones.

Mim                  La               Re
Si ella baila yo encuentro una canción

        La
que habla de nosotros dos.

La                Re    La      Sim
Quédate en silencio y oye el ruido

          La          Re La
de mis tripas soñadoras.

       Sim          La           Mim
Que sueñan con comerte a todas horas.

La                      Re La Sim La Re La Sim La
Ruge el deseo contenido

Mim La Mim La

Re La Sim La              Re  La Sim La
Gira,         y yo la espero

Mim                La
se va y a la vida le pierdo el apego

Re        La Sim La        Re    La Sim La 
y el juicio,          y recupero

Mim                         La
si encuentro un indicio de su paradero...


Re     La           Sim         La
Comencé por dejar la puerta abierta siempre

Re      La          Sim         La
para ver si llega hasta aquí tu aire caliente

Mim                         La                   Re
respirarlo y que me cuente tus noticias más urgentes...


No hay comentarios:

Publicar un comentario en la entrada