.

banners

Tormenta eléctrica. Rata Blanca.

www.tabsfacil.blogspot.com
Tablaturas fáciles para guitarra.
















Tormenta eléctrica. Rata Blanca.

1.-----------------------------------
2.-----------------------------------
3.-------1-----1-----1-----1-----1h3-
4.---3-3---3-3---3-3---3-3---3-3-----
5.-----------------------------------
6.-----------------------------------

1.-----------------------------------
2.-----------------------------------
3.-------1-----1-----1-----1---------
4.---3-3---3-3---3-3---3-3---3-3--3h1
5.-----------------------------------
6.-----------------------------------

1.-----------------------------------
2.-----------------------------------
3.-------1-----1-----1-----1-----1h3-
4.---3-3---3-3---3-3---3-3---3-3-----
5.-----------------------------------
6.-----------------------------------

1.-------------------------------------
2.-------------------------------------
3.-------1-----1-----1-------4-3-1-----
4.---3-3---3-3---3-3---3-3-1-------1-3-
5.-------------------------------------
6.----------------------------------...


No hay comentarios:

Publicar un comentario en la entrada