.

banners

Tabs fácil de...Throne of thorns. Testament.



   www.tabsfacil.es
    Tablaturas fáciles para guitarra











Throne of thorns. Testament.

1.-----------------------------------------------
2.-----5---5-----------8---8-----------7---7-----
3.---6---6---6-------6---6---6-------6---6---6---
4.-6-----------6---6-----------6---7-----------7-
5.-----------------------------------------------
6.-----------------------------------------------

1.-----------------------------------------------
2.-----5---5-----------5---5-----------8---8-----
3.---6---6---6-------6---6---6-------6---6---6---
4.-6-----------6---6-----------6---6-----------6-
5.-----------------------------------------------
6.-----------------------------------------------

1.------------------------------------
2.-------7---7-----------5---5--------
3.-----6---6---6-------6---6---6------
4.---7-----------7---6-----------6----
5.------------------------------------
6.------------------------------------

(0:17)
1.--------------------------------------------
2.--------------------------------------------
3.-------------------------------------------7
4.-6---9---8---7---9---7---6-----6---7---9---5
5.-4---7---6---5---7---5---4-----4---5---7----
6.--------------------------------------------

1.-------------------------------------------
2.-------------------------------------------
3.-------------------------------------------
4.-9--7--6---6--9--8-----------------------7-
5.-7--5--4---4--7--6--6--6-6-6--5--5-5-5---5-
6.-------------------------------------------

1.----------------------------------
2.----------------------------------
3.-------------------4/6---6---4/6/-
4.---9---7---6---6/7----------------
5.---7---5---4----------------------
6.----------------------------------


No hay comentarios:

Publicar un comentario en la entrada