.

banners

The lay of our love. Tyr.



  www.tabsfacil.es
   Tablaturas fáciles para guitarra



















The lay of our love. Tyr.

                                           
1.---------------------2-0-----------------5-2-0-
2.-------3---------2-3----------3---3------------
3.---------------4------------4---4---4/6--------
4.-----4---4-5-4------------5--------------------
5.---2-------------------------------------------
6.-----------------------------------------------


1.---------------------2-0-----------------5-2-0-
2.-------3---------2-3----------3---3------------
3.---------------4------------4---4---4/6--------
4.-----4---4-5-4------------5--------------------
5.---2-------------------------------------------
6.-----------------------------------------------


1.---------------------2-0-----------------5-2-0-
2.-------3---------2-3----------3---3------------
3.---------------4------------4---4---4/6--------
4.-----4---4-5-4------------5--------------------
5.---2-------------------------------------------
6.-----------------------------------------------


1.---------------------2-0-----------------5-2-0-
2.-------3---------2-3----------3---3------------
3.---------------4------------4---4---4/6--------
4.-----4---4-5-4------------5--------------------
5.---2-------------------------------------------
6.-----------------------------------------------


1.--------------------------2----------2---------
2.-------3---3--------3-3-5----2---2-5---5---3---
3.-----4---4---4----4----------3-3-----------4---
4.---4------------5------------4-------------4---
5.-----------------------------------------------
6.-----------------------------------------------


1.------------------------------
2.-------3---3-------5----7-5---
3.-----4---4-------6---6--------
4.---4-----------7--------------
5.------------------------------
6.------------------------------. 


No hay comentarios:

Publicar un comentario