.

banners

Tabs fácil de...La danza del fuego. Finisterra Öpera Rock.


www.tabsfacil.es
Tablaturas fáciles para guitarra.





La Danza del Fuego. Finisterra ópera rock. Mägo de oz.

(Tiempos del video).
  
 (3:18)
1.------------------------------
2.------------------------------
3.--2-----2---------------------
4.--0--2--0--2-----5-----5-2--2-
5.-----0-----0--3--3--3--3-0--0-
6.--------------1-----1---------

"Cuando veas una estrella...


1.--------------------------------------

2.--------------------------------------
3.-2-2------------2-2----------------2-2
4.-0-0--2-2--2-2--0-0------5-5--5-5--0-0
5.------0-0--0-0------3-3--3-3--3-3-----
6.--------------------1-1---------------

1.--------------------------------------

2.--------------------------------------
3.-2-2------------2-2----------------2-2
4.-0-0--2-2--2-2--0-0------5-5--5-5--0-0
5.------0-0--0-0------3-3--3-3--3-3-----
6.--------------------1-1---------------

1.--------------------------------------

2.--------------------------------------
3.-2-2------------2-2----------------2-2
4.-0-0--2-2--2-2--0-0------5-5--5-5--0-0
5.------0-0--0-0------3-3--3-3--3-3-----
6.--------------------1-1---------------

1.----------------------------------

2.----------------------------------
3.-2-2------------2-2--------------2
4.-0-0--2-2--2-2--0-0------5-5--5--0
5.------0-0--0-0------3-3--3-3--3---
6.--------------------1-1-----------...

  (4:09)"Si eres capaz...

1.---------------------------------
2.---------------------------------
3.-2--2-2--------------------------
4.-0--0-0--3--3-3--5--5-5--5--5-5--
5.---------1--1-1--3--3-3--3--3-3--
6.---------------------------------

1.--------------------------------

2.--------------------------------
3.-2--2-2-------------------------
4.-0--0-0--3--3-3--5--5-5--5--5-5-
5.---------1--1-1--3--3-3--3--3-3-
6.--------------------------------

1.------------------------------------

2.------------------------------------
3.------------------------------------
4.--------------------5--5-5--5-5--5-5
5.--3--3-3--3-3--3-3--3--3-3--3-3--3-3
6.--1--1-1--1-1--1-1------------------

1.--------------------------

2.--------------------------
3.--------------------------
4.---------5-5-5------------
5.--3-3-3--3-3-3--5-5-5-3-5-
6.--1-1-1----------------...

(5:21) Solo.


1.-----------T--------T------------

2.--5h6--5h6-10h6h5h6-13h5h6h5-----
3.-----------------------------7-5-
4.---------------------------------
5.---------------------------------
6.---------------------------------

1.---------------------------------

2.------8--------------------------
3.--7(8)--7(8)(7)h5-7(8)(7)h5------
4.----------------------------5h7--
5.---------------------------------
6.---------------------------------

1.---------------------------------

2.-----(HH)(HH)(HH)---------------8
3.--5h7-7(8)(7)-5----10--10-10-10--
4.----------------7----------------
5.---------------------------------
6.---------------------------------

1.----8-8--10-8---------------------

2.-10-----------10------------------
3.-----------------9--12h10----12h10
4.--------------------------12------
5.----------------------------------
6.----------------------------------

1.----------------------------------

2.----------------------------------
3.----12h10-----------10-14h10------
4.-12-------12--10-12----------12-10
5.----------------------------------
6.----------------------------------

1.----------

2.----------
3.----10----
4.-12----12-
5.----------
6.----------...

No hay comentarios:

Publicar un comentario